  0
SECTION
  2
HEADER
  9
$ACADVER
  1
AC1014
  9
$ACADMAINTVER
 70
     9
  9
$DWGCODEPAGE
  3
MAC-ROMAN
  9
$INSBASE
 10
0.0
 20
0.0
 30
0.0
  9
$EXTMIN
 10
1.000000000000000E+20
 20
1.000000000000000E+20
 30
1.000000000000000E+20
  9
$EXTMAX
 10
-1.000000000000000E+20
 20
-1.000000000000000E+20
 30
-1.000000000000000E+20
  9
$LIMMIN
 10
0.0
 20
0.0
  9
$LIMMAX
 10
12.0
 20
9.0
  9
$ORTHOMODE
 70
     0
  9
$REGENMODE
 70
     1
  9
$FILLMODE
 70
     1
  9
$QTEXTMODE
 70
     0
  9
$MIRRTEXT
 70
     1
  9
$DRAGMODE
 70
     2
  9
$LTSCALE
 40
2.54
  9
$OSMODE
 70
    37
  9
$ATTMODE
 70
     1
  9
$TEXTSIZE
 40
0.2
  9
$TRACEWID
 40
0.05
  9
$TEXTSTYLE
  7
STANDARD
  9
$CLAYER
  8
0
  9
$CELTYPE
  6
BYLAYER
  9
$CECOLOR
 62
   256
  9
$CELTSCALE
 40
1.0
  9
$DELOBJ
 70
     1
  9
$DISPSILH
 70
     0
  9
$DIMSCALE
 40
1.0
  9
$DIMASZ
 40
0.18
  9
$DIMEXO
 40
0.0625
  9
$DIMDLI
 40
0.38
  9
$DIMRND
 40
0.0
  9
$DIMDLE
 40
0.0
  9
$DIMEXE
 40
0.18
  9
$DIMTP
 40
0.0
  9
$DIMTM
 40
0.0
  9
$DIMTXT
 40
0.18
  9
$DIMCEN
 40
0.09
  9
$DIMTSZ
 40
0.0
  9
$DIMTOL
 70
     0
  9
$DIMLIM
 70
     0
  9
$DIMTIH
 70
     1
  9
$DIMTOH
 70
     1
  9
$DIMSE1
 70
     0
  9
$DIMSE2
 70
     0
  9
$DIMTAD
 70
     0
  9
$DIMZIN
 70
     0
  9
$DIMBLK
  1

  9
$DIMASO
 70
     1
  9
$DIMSHO
 70
     1
  9
$DIMPOST
  1

  9
$DIMAPOST
  1

  9
$DIMALT
 70
     0
  9
$DIMALTD
 70
     2
  9
$DIMALTF
 40
25.4
  9
$DIMLFAC
 40
1.0
  9
$DIMTOFL
 70
     0
  9
$DIMTVP
 40
0.0
  9
$DIMTIX
 70
     0
  9
$DIMSOXD
 70
     0
  9
$DIMSAH
 70
     0
  9
$DIMBLK1
  1

  9
$DIMBLK2
  1

  9
$DIMSTYLE
  2
STANDARD
  9
$DIMCLRD
 70
     0
  9
$DIMCLRE
 70
     0
  9
$DIMCLRT
 70
     0
  9
$DIMTFAC
 40
1.0
  9
$DIMGAP
 40
0.09
  9
$DIMJUST
 70
     0
  9
$DIMSD1
 70
     0
  9
$DIMSD2
 70
     0
  9
$DIMTOLJ
 70
     1
  9
$DIMTZIN
 70
     0
  9
$DIMALTZ
 70
     0
  9
$DIMALTTZ
 70
     0
  9
$DIMFIT
 70
     3
  9
$DIMUPT
 70
     0
  9
$DIMUNIT
 70
     2
  9
$DIMDEC
 70
     4
  9
$DIMTDEC
 70
     4
  9
$DIMALTU
 70
     2
  9
$DIMALTTD
 70
     2
  9
$DIMTXSTY
  7
STANDARD
  9
$DIMAUNIT
 70
     0
  9
$LUNITS
 70
     2
  9
$LUPREC
 70
     4
  9
$SKETCHINC
 40
0.1
  9
$FILLETRAD
 40
0.5
  9
$AUNITS
 70
     0
  9
$AUPREC
 70
     0
  9
$MENU
  1
.
  9
$ELEVATION
 40
0.0
  9
$PELEVATION
 40
0.0
  9
$THICKNESS
 40
0.0
  9
$LIMCHECK
 70
     0
  9
$CHAMFERA
 40
0.0
  9
$CHAMFERB
 40
0.0
  9
$CHAMFERC
 40
0.0
  9
$CHAMFERD
 40
0.0
  9
$SKPOLY
 70
     0
  9
$TDCREATE
 40
2460073.750548148
  9
$TDUPDATE
 40
2460073.750549282
  9
$TDINDWG
 40
0.0000000116
  9
$TDUSRTIMER
 40
0.0000000116
  9
$USRTIMER
 70
     1
  9
$ANGBASE
 50
0.0
  9
$ANGDIR
 70
     0
  9
$PDMODE
 70
     0
  9
$PDSIZE
 40
0.0
  9
$PLINEWID
 40
0.0
  9
$COORDS
 70
     1
  9
$SPLFRAME
 70
     0
  9
$SPLINETYPE
 70
     6
  9
$SPLINESEGS
 70
     8
  9
$ATTDIA
 70
     0
  9
$ATTREQ
 70
     1
  9
$HANDLING
 70
     1
  9
$HANDSEED
  5
4C4
  9
$SURFTAB1
 70
     6
  9
$SURFTAB2
 70
     6
  9
$SURFTYPE
 70
     6
  9
$SURFU
 70
     6
  9
$SURFV
 70
     6
  9
$UCSNAME
  2

  9
$UCSORG
 10
0.0
 20
0.0
 30
0.0
  9
$UCSXDIR
 10
1.0
 20
0.0
 30
0.0
  9
$UCSYDIR
 10
0.0
 20
1.0
 30
0.0
  9
$PUCSNAME
  2

  9
$PUCSORG
 10
0.0
 20
0.0
 30
0.0
  9
$PUCSXDIR
 10
1.0
 20
0.0
 30
0.0
  9
$PUCSYDIR
 10
0.0
 20
1.0
 30
0.0
  9
$USERI1
 70
     0
  9
$USERI2
 70
     0
  9
$USERI3
 70
     0
  9
$USERI4
 70
     0
  9
$USERI5
 70
     0
  9
$USERR1
 40
0.0
  9
$USERR2
 40
0.0
  9
$USERR3
 40
0.0
  9
$USERR4
 40
0.0
  9
$USERR5
 40
0.0
  9
$WORLDVIEW
 70
     1
  9
$SHADEDGE
 70
     3
  9
$SHADEDIF
 70
    70
  9
$TILEMODE
 70
     1
  9
$MAXACTVP
 70
    64
  9
$PINSBASE
 10
0.0
 20
0.0
 30
0.0
  9
$PLIMCHECK
 70
     0
  9
$PEXTMIN
 10
1.000000000000000E+20
 20
1.000000000000000E+20
 30
1.000000000000000E+20
  9
$PEXTMAX
 10
-1.000000000000000E+20
 20
-1.000000000000000E+20
 30
-1.000000000000000E+20
  9
$PLIMMIN
 10
0.0
 20
0.0
  9
$PLIMMAX
 10
12.0
 20
9.0
  9
$UNITMODE
 70
     0
  9
$VISRETAIN
 70
     1
  9
$PLINEGEN
 70
     0
  9
$PSLTSCALE
 70
     1
  9
$TREEDEPTH
 70
  3020
  9
$PICKSTYLE
 70
     1
  9
$CMLSTYLE
  2
STANDARD
  9
$CMLJUST
 70
     0
  9
$CMLSCALE
 40
1.0
  9
$PROXYGRAPHICS
 70
     1
  9
$MEASUREMENT
 70
     1
  0
ENDSEC
  0
SECTION
  2
CLASSES
  0
CLASS
  1
ACDBDICTIONARYWDFLT
  2
AcDbDictionaryWithDefault
  3
ObjectDBX Classes
 90
        0
280
     0
281
     0
  0
CLASS
  1
VISUALSTYLE
  2
AcDbVisualStyle
  3
ObjectDBX Classes
 90
     4095
280
     0
281
     0
  0
CLASS
  1
MATERIAL
  2
AcDbMaterial
  3
ObjectDBX Classes
 90
     1153
280
     0
281
     0
  0
CLASS
  1
SCALE
  2
AcDbScale
  3
ObjectDBX Classes
 90
     1153
280
     0
281
     0
  0
CLASS
  1
TABLESTYLE
  2
AcDbTableStyle
  3
ObjectDBX Classes
 90
     4095
280
     0
281
     0
  0
CLASS
  1
MLEADERSTYLE
  2
AcDbMLeaderStyle
  3
ACDB_MLEADERSTYLE_CLASS
 90
     4095
280
     0
281
     0
  0
CLASS
  1
SUN
  2
AcDbSun
  3
SCENEOE
 90
     1153
280
     0
281
     0
  0
CLASS
  1
CAMERA
  2
AcDbCamera
  3
ACCAMERA
 90
      195
280
     0
281
     1
  0
CLASS
  1
DICTIONARYVAR
  2
AcDbDictionaryVar
  3
ObjectDBX Classes
 90
        0
280
     0
281
     0
  0
CLASS
  1
XRECORD
  2
AcDbXrecord
  3
ObjectDBX Classes
 90
        0
280
     0
281
     0
  0
CLASS
  1
LWPOLYLINE
  2
AcDbPolyline
  3
ObjectDBX Classes
 90
        0
280
     0
281
     1
  0
CLASS
  1
HATCH
  2
AcDbHatch
  3
ObjectDBX Classes
 90
        0
280
     0
281
     1
  0
CLASS
  1
ACDBPLACEHOLDER
  2
AcDbPlaceHolder
  3
ObjectDBX Classes
 90
        0
280
     0
281
     0
  0
CLASS
  1
LAYOUT
  2
AcDbLayout
  3
ObjectDBX Classes
 90
        0
280
     0
281
     0
  0
ENDSEC
  0
SECTION
  2
TABLES
  0
TABLE
  2
VPORT
  5
8
102
{ACAD_XDICTIONARY
360
4B3
102
}
330
0
100
AcDbSymbolTable
 70
     1
  0
VPORT
  5
29
330
8
100
AcDbSymbolTableRecord
100
AcDbViewportTableRecord
  2
*ACTIVE
 70
     0
 10
0.0
 20
0.0
 11
1.0
 21
1.0
 12
0.0
 22
0.0
 13
0.0
 23
0.0
 14
0.5
 24
0.5
 15
0.5
 25
0.5
 16
0.517770581935326
 26
-0.8372926600577099
 36
0.1756548487683679
 17
103.1605963190729
 27
24.06069952851647
 37
48.56512540899771
 40
180.3359555493916
 41
1.3333
 42
50.38394550081738
 43
-333.9714742709061
 44
2203.488525729094
 50
0.0
 51
0.0000000000000008
 71
     1
 72
   100
 73
     1
 74
     3
 75
     0
 76
     0
 77
     0
 78
     0
  0
ENDTAB
  0
TABLE
  2
LTYPE
  5
5
330
0
100
AcDbSymbolTable
 70
     1
  0
LTYPE
  5
14
330
5
100
AcDbSymbolTableRecord
100
AcDbLinetypeTableRecord
  2
BYBLOCK
 70
     0
  3

 72
    65
 73
     0
 40
0.0
  0
LTYPE
  5
15
330
5
100
AcDbSymbolTableRecord
100
AcDbLinetypeTableRecord
  2
BYLAYER
 70
     0
  3

 72
    65
 73
     0
 40
0.0
  0
LTYPE
  5
16
330
5
100
AcDbSymbolTableRecord
100
AcDbLinetypeTableRecord
  2
CONTINUOUS
 70
     0
  3
Solid line
 72
    65
 73
     0
 40
0.0
  0
ENDTAB
  0
TABLE
  2
LAYER
  5
2
330
0
100
AcDbSymbolTable
 70
     2
  0
LAYER
  5
10
330
2
100
AcDbSymbolTableRecord
100
AcDbLayerTableRecord
  2
0
 70
     0
 62
    13
  6
CONTINUOUS
  0
LAYER
  5
6F
330
2
100
AcDbSymbolTableRecord
100
AcDbLayerTableRecord
  2
TEMPORARY_SYSTEM_CAMERAS_L
 70
     0
 62
     7
  6
CONTINUOUS
  0
ENDTAB
  0
TABLE
  2
STYLE
  5
3
330
0
100
AcDbSymbolTable
 70
     2
  0
STYLE
  5
11
330
3
100
AcDbSymbolTableRecord
100
AcDbTextStyleTableRecord
  2
STANDARD
 70
     0
 40
0.0
 41
1.0
 50
0.0
 71
     0
 42
0.2
  3
txt
  4

  0
STYLE
  5
71
330
3
100
AcDbSymbolTableRecord
100
AcDbTextStyleTableRecord
  2
LUCIDA_GRANDE
 70
     0
 40
0.0
 41
1.0
 50
0.0
 71
     0
 42
0.2
  3
Lucida Grande
  4

1001
ACAD
1000
Lucida Grande
1071
       34
  0
ENDTAB
  0
TABLE
  2
VIEW
  5
6
330
0
100
AcDbSymbolTable
 70
     1
  0
VIEW
  5
6E
330
6
100
AcDbSymbolTableRecord
100
AcDbViewTableRecord
  2
ESCENA1
 70
     0
 40
180.3359555493916
 10
0.0
 20
0.0
 41
240.4419295340038
 11
26.08732478215597
 21
-42.18610775258207
 31
8.850184327299766
 12
103.1605963190729
 22
24.06069952851647
 32
48.56512540899771
 42
50.38394550081738
 43
-333.9714742709061
 44
2203.488525729094
 50
0.0000000000000008
 71
     1
  0
ENDTAB
  0
TABLE
  2
UCS
  5
7
330
0
100
AcDbSymbolTable
 70
     0
  0
ENDTAB
  0
TABLE
  2
APPID
  5
9
330
0
100
AcDbSymbolTable
 70
     3
  0
APPID
  5
12
330
9
100
AcDbSymbolTableRecord
100
AcDbRegAppTableRecord
  2
ACAD
 70
     0
  0
APPID
  5
C4
330
9
100
AcDbSymbolTableRecord
100
AcDbRegAppTableRecord
  2
ACAD_MATERIAL_MAPPER
 70
     0
  0
APPID
  5
4C3
330
9
100
AcDbSymbolTableRecord
100
AcDbRegAppTableRecord
  2
ACAD_MLEADERVER
 70
     0
  0
ENDTAB
  0
TABLE
  2
DIMSTYLE
  5
A
330
0
100
AcDbSymbolTable
 70
     2
  0
DIMSTYLE
105
27
330
A
100
AcDbSymbolTableRecord
100
AcDbDimStyleTableRecord
  2
STANDARD
 70
     0
  3

  4

  5

  6

  7

 40
1.0
 41
0.18
 42
0.0625
 43
0.38
 44
0.18
 45
0.0
 46
0.0
 47
0.0
 48
0.0
140
0.18
141
0.09
142
0.0
143
25.4
144
1.0
145
0.0
146
1.0
147
0.09
 71
     0
 72
     0
 73
     1
 74
     1
 75
     0
 76
     0
 77
     0
 78
     0
170
     0
171
     2
172
     0
173
     0
174
     0
175
     0
176
     0
177
     0
178
     0
270
     2
271
     4
272
     4
273
     2
274
     2
340
11
275
     0
280
     0
281
     0
282
     0
283
     1
284
     0
285
     0
286
     0
287
     3
288
     0
  0
DIMSTYLE
105
72
330
A
100
AcDbSymbolTableRecord
100
AcDbDimStyleTableRecord
  2
DIMENSIONS
 70
     0
  3
cm
  4

  5

  6

  7

 40
1.0
 41
1.27
 42
1.27
 43
0.38
 44
1.27
 45
0.0
 46
0.0
 47
0.0
 48
0.0
140
2.54
141
0.09
142
0.0
143
25.4
144
1.0
145
0.0
146
1.0
147
0.254
 71
     0
 72
     0
 73
     1
 74
     1
 75
     0
 76
     0
 77
     0
 78
     0
170
     0
171
     2
172
     0
173
     0
174
     0
175
     0
176
     0
177
     0
178
     0
270
     2
271
     1
272
     4
273
     2
274
     2
340
71
275
     0
280
     0
281
     0
282
     0
283
     1
284
     0
285
     0
286
     0
287
     3
288
     0
  0
ENDTAB
  0
TABLE
  2
BLOCK_RECORD
  5
1
330
0
100
AcDbSymbolTable
 70
     6
  0
BLOCK_RECORD
  5
1F
330
1
100
AcDbSymbolTableRecord
100
AcDbBlockTableRecord
  2
*MODEL_SPACE
  0
BLOCK_RECORD
  5
1B
330
1
100
AcDbSymbolTableRecord
100
AcDbBlockTableRecord
  2
*PAPER_SPACE
  0
BLOCK_RECORD
  5
73
330
1
100
AcDbSymbolTableRecord
100
AcDbBlockTableRecord
  2
RS_OLUM_V3-PL_DWG_1
  0
BLOCK_RECORD
  5
76
330
1
100
AcDbSymbolTableRecord
100
AcDbBlockTableRecord
  2
VENTANA_2
  0
BLOCK_RECORD
  5
79
330
1
100
AcDbSymbolTableRecord
100
AcDbBlockTableRecord
  2
VENTANA_3
  0
BLOCK_RECORD
  5
7C
330
1
100
AcDbSymbolTableRecord
100
AcDbBlockTableRecord
  2
UNIR_2
  0
BLOCK_RECORD
  5
7F
330
1
100
AcDbSymbolTableRecord
100
AcDbBlockTableRecord
  2
GRUPO_1
  0
BLOCK_RECORD
  5
82
330
1
100
AcDbSymbolTableRecord
100
AcDbBlockTableRecord
  2
GRUPO_2
  0
ENDTAB
  0
ENDSEC
  0
SECTION
  2
BLOCKS
  0
BLOCK
  5
20
330
1F
100
AcDbEntity
  8
0
100
AcDbBlockBegin
  2
*MODEL_SPACE
 70
     0
 10
0.0
 20
0.0
 30
0.0
  3
*MODEL_SPACE
  1

  0
ENDBLK
  5
21
330
1F
100
AcDbEntity
  8
0
100
AcDbBlockEnd
  0
BLOCK
  5
1C
330
1B
100
AcDbEntity
 67
     1
  8
0
100
AcDbBlockBegin
  2
*PAPER_SPACE
 70
     0
 10
0.0
 20
0.0
 30
0.0
  3
*PAPER_SPACE
  1

  0
ENDBLK
  5
1D
330
1B
100
AcDbEntity
 67
     1
  8
0
100
AcDbBlockEnd
  0
BLOCK
  5
74
330
73
100
AcDbEntity
  8
0
100
AcDbBlockBegin
  2
RS_OLUM_V3-PL_DWG_1
 70
     0
 10
0.0
 20
0.0
 30
0.0
  3
RS_OLUM_V3-PL_DWG_1
  1

  0
LINE
  5
85
330
73
100
AcDbEntity
  8
0
 62
     0
100
AcDbLine
 10
6.499999999999966
 20
0.1699999999999974
 30
0.0
 11
6.499999999999966
 21
0.0
 31
0.0
  0
LINE
  5
86
330
73
100
AcDbEntity
  8
0
 62
     0
100
AcDbLine
 10
6.499999999999966
 20
0.0
 30
0.0
 11
6.949999999999972
 21
0.0
 31
0.0
  0
LINE
  5
87
330
73
100
AcDbEntity
  8
0
 62
     0
100
AcDbLine
 10
6.949999999999972
 20
0.0
 30
0.0
 11
6.949999999999972
 21
0.4499999999999699
 31
0.0
  0
LINE
  5
88
330
73
100
AcDbEntity
  8
0
 62
     0
100
AcDbLine
 10
6.949999999999972
 20
0.4499999999999699
 30
0.0
 11
6.589999999999981
 21
0.4499999999999699
 31
0.0
  0
LINE
  5
89
330
73
100
AcDbEntity
  8
0
 62
     0
100
AcDbLine
 10
6.589999999999981
 20
0.4499999999999699
 30
0.0
 11
6.589999999999981
 21
0.1699999999999974
 31
0.0
  0
LINE
  5
8A
330
73
100
AcDbEntity
  8
0
 62
     0
100
AcDbLine
 10
6.589999999999981
 20
0.1699999999999974
 30
0.0
 11
6.499999999999966
 21
0.1699999999999974
 31
0.0
  0
LINE
  5
8B
330
73
100
AcDbEntity
  8
0
 62
     0
100
AcDbLine
 10
6.589999999999981
 20
0.2300000000000199
 30
0.0
 11
6.589999999999981
 21
0.4499999999999699
 31
0.0
  0
LINE
  5
8C
330
73
100
AcDbEntity
  8
0
 62
     0
100
AcDbLine
 10
6.589999999999981
 20
0.4499999999999699
 30
0.0
 11
6.499999999999966
 21
0.4499999999999699
 31
0.0
  0
LINE
  5
8D
330
73
100
AcDbEntity
  8
0
 62
     0
100
AcDbLine
 10
6.499999999999966
 20
0.4499999999999699
 30
0.0
 11
6.499999999999966
 21
0.2300000000000199
 31
0.0
  0
LINE
  5
8E
330
73
100
AcDbEntity
  8
0
 62
     0
100
AcDbLine
 10
6.499999999999966
 20
0.2300000000000199
 30
0.0
 11
6.589999999999981
 21
0.2300000000000199
 31
0.0
  0
LINE
  5
90
330
73
100
AcDbEntity
  8
0
 62
     8
100
AcDbLine
 10
6.589999999999981
 20
0.2300000000000199
 30
0.0
 11
0.5599999999999449
 21
0.2300000000000199
 31
0.0
  0
LINE
  5
91
330
73
100
AcDbEntity
  8
0
 62
     8
100
AcDbLine
 10
6.589999999999981
 20
0.1699999999999974
 30
0.0
 11
0.5599999999999449
 21
0.1699999999999613
 31
0.0
  0
LINE
  5
92
330
73
100
AcDbEntity
  8
0
 62
     8
100
AcDbLine
 10
6.499999999999966
 20
0.4499999999999699
 30
0.0
 11
0.6499999999999605
 21
0.4500000000000421
 31
0.0
  0
LINE
  5
93
330
73
100
AcDbEntity
  8
0
 62
     0
100
AcDbLine
 10
0.6499999999999605
 20
0.1699999999999974
 30
0.0
 11
0.6499999999999605
 21
0.0
 31
0.0
  0
LINE
  5
94
330
73
100
AcDbEntity
  8
0
 62
     0
100
AcDbLine
 10
0.6499999999999605
 20
0.0
 30
0.0
 11
0.1999999999999545
 21
0.0
 31
0.0
  0
LINE
  5
95
330
73
100
AcDbEntity
  8
0
 62
     0
100
AcDbLine
 10
0.1999999999999545
 20
0.0
 30
0.0
 11
0.1999999999999545
 21
0.4499999999999699
 31
0.0
  0
LINE
  5
96
330
73
100
AcDbEntity
  8
0
 62
     0
100
AcDbLine
 10
0.1999999999999545
 20
0.4499999999999699
 30
0.0
 11
0.5599999999999449
 21
0.4499999999999699
 31
0.0
  0
LINE
  5
97
330
73
100
AcDbEntity
  8
0
 62
     0
100
AcDbLine
 10
0.5599999999999449
 20
0.4499999999999699
 30
0.0
 11
0.5599999999999449
 21
0.1699999999999613
 31
0.0
  0
LINE
  5
98
330
73
100
AcDbEntity
  8
0
 62
     0
100
AcDbLine
 10
0.5599999999999449
 20
0.1699999999999613
 30
0.0
 11
0.6499999999999605
 21
0.1699999999999974
 31
0.0
  0
LINE
  5
99
330
73
100
AcDbEntity
  8
0
 62
     0
100
AcDbLine
 10
0.5599999999999449
 20
0.2300000000000199
 30
0.0
 11
0.5599999999999449
 21
0.4499999999999699
 31
0.0
  0
LINE
  5
9A
330
73
100
AcDbEntity
  8
0
 62
     0
100
AcDbLine
 10
0.5599999999999449
 20
0.4499999999999699
 30
0.0
 11
0.6499999999999605
 21
0.4500000000000421
 31
0.0
  0
LINE
  5
9B
330
73
100
AcDbEntity
  8
0
 62
     0
100
AcDbLine
 10
0.6499999999999605
 20
0.4500000000000421
 30
0.0
 11
0.6499999999999605
 21
0.2300000000000199
 31
0.0
  0
LINE
  5
9C
330
73
100
AcDbEntity
  8
0
 62
     0
100
AcDbLine
 10
0.6499999999999605
 20
0.2300000000000199
 30
0.0
 11
0.5599999999999449
 21
0.2300000000000199
 31
0.0
  0
LINE
  5
9D
330
73
100
AcDbEntity
  8
0
 62
     8
100
AcDbLine
 10
6.499999999999966
 20
0.0
 30
0.0
 11
0.6499999999999605
 21
0.0
 31
0.0
  0
LINE
  5
9E
330
73
100
AcDbEntity
  8
0
 62
     0
100
AcDbLine
 10
13.69999999999992
 20
0.9500000000000367
 30
0.0
 11
0.1999999999999545
 21
0.9500000000000006
 31
0.0
  0
LINE
  5
9F
330
73
100
AcDbEntity
  8
0
 62
     0
100
AcDbLine
 10
7.399999999999942
 20
0.1699999999999974
 30
0.0
 11
7.399999999999942
 21
0.0
 31
0.0
  0
LINE
  5
A0
330
73
100
AcDbEntity
  8
0
 62
     0
100
AcDbLine
 10
7.399999999999942
 20
0.0
 30
0.0
 11
6.949999999999972
 21
0.0
 31
0.0
  0
LINE
  5
A1
330
73
100
AcDbEntity
  8
0
 62
     0
100
AcDbLine
 10
6.949999999999972
 20
0.4499999999999699
 30
0.0
 11
7.309999999999962
 21
0.4499999999999699
 31
0.0
  0
LINE
  5
A2
330
73
100
AcDbEntity
  8
0
 62
     0
100
AcDbLine
 10
7.309999999999962
 20
0.4499999999999699
 30
0.0
 11
7.309999999999962
 21
0.1699999999999974
 31
0.0
  0
LINE
  5
A3
330
73
100
AcDbEntity
  8
0
 62
     0
100
AcDbLine
 10
7.309999999999962
 20
0.1699999999999974
 30
0.0
 11
7.399999999999942
 21
0.1699999999999974
 31
0.0
  0
LINE
  5
A4
330
73
100
AcDbEntity
  8
0
 62
     0
100
AcDbLine
 10
7.309999999999962
 20
0.2300000000000199
 30
0.0
 11
7.309999999999962
 21
0.4499999999999699
 31
0.0
  0
LINE
  5
A5
330
73
100
AcDbEntity
  8
0
 62
     0
100
AcDbLine
 10
7.309999999999962
 20
0.4499999999999699
 30
0.0
 11
7.399999999999942
 21
0.4499999999999699
 31
0.0
  0
LINE
  5
A6
330
73
100
AcDbEntity
  8
0
 62
     0
100
AcDbLine
 10
7.399999999999942
 20
0.4499999999999699
 30
0.0
 11
7.399999999999942
 21
0.2300000000000199
 31
0.0
  0
LINE
  5
A7
330
73
100
AcDbEntity
  8
0
 62
     0
100
AcDbLine
 10
7.399999999999942
 20
0.2300000000000199
 30
0.0
 11
7.309999999999962
 21
0.2300000000000199
 31
0.0
  0
LINE
  5
A8
330
73
100
AcDbEntity
  8
0
 62
     8
100
AcDbLine
 10
7.309999999999962
 20
0.2300000000000199
 30
0.0
 11
13.33999999999993
 21
0.230000000000056
 31
0.0
  0
LINE
  5
A9
330
73
100
AcDbEntity
  8
0
 62
     8
100
AcDbLine
 10
7.309999999999962
 20
0.1699999999999974
 30
0.0
 11
13.33999999999993
 21
0.1699999999999974
 31
0.0
  0
LINE
  5
AA
330
73
100
AcDbEntity
  8
0
 62
     8
100
AcDbLine
 10
7.399999999999942
 20
0.4499999999999699
 30
0.0
 11
13.24999999999991
 21
0.4500000000000782
 31
0.0
  0
LINE
  5
AB
330
73
100
AcDbEntity
  8
0
 62
     0
100
AcDbLine
 10
13.24999999999991
 20
0.1700000000000696
 30
0.0
 11
13.24999999999991
 21
0.0000000000000361
 31
0.0
  0
LINE
  5
AC
330
73
100
AcDbEntity
  8
0
 62
     0
100
AcDbLine
 10
13.24999999999991
 20
0.0000000000000361
 30
0.0
 11
13.69999999999992
 21
0.0000000000000361
 31
0.0
  0
LINE
  5
AD
330
73
100
AcDbEntity
  8
0
 62
     0
100
AcDbLine
 10
13.69999999999992
 20
0.0000000000000361
 30
0.0
 11
13.69999999999992
 21
0.4500000000000421
 31
0.0
  0
LINE
  5
AE
330
73
100
AcDbEntity
  8
0
 62
     0
100
AcDbLine
 10
13.69999999999992
 20
0.4500000000000421
 30
0.0
 11
13.33999999999993
 21
0.4500000000000421
 31
0.0
  0
LINE
  5
AF
330
73
100
AcDbEntity
  8
0
 62
     0
100
AcDbLine
 10
13.33999999999993
 20
0.4500000000000421
 30
0.0
 11
13.33999999999993
 21
0.1699999999999974
 31
0.0
  0
LINE
  5
B0
330
73
100
AcDbEntity
  8
0
 62
     0
100
AcDbLine
 10
13.33999999999993
 20
0.1699999999999974
 30
0.0
 11
13.24999999999991
 21
0.1700000000000696
 31
0.0
  0
LINE
  5
B1
330
73
100
AcDbEntity
  8
0
 62
     0
100
AcDbLine
 10
13.33999999999993
 20
0.230000000000056
 30
0.0
 11
13.33999999999993
 21
0.4500000000000421
 31
0.0
  0
LINE
  5
B2
330
73
100
AcDbEntity
  8
0
 62
     0
100
AcDbLine
 10
13.33999999999993
 20
0.4500000000000421
 30
0.0
 11
13.24999999999991
 21
0.4500000000000782
 31
0.0
  0
LINE
  5
B3
330
73
100
AcDbEntity
  8
0
 62
     0
100
AcDbLine
 10
13.24999999999991
 20
0.4500000000000782
 30
0.0
 11
13.24999999999991
 21
0.230000000000056
 31
0.0
  0
LINE
  5
B4
330
73
100
AcDbEntity
  8
0
 62
     0
100
AcDbLine
 10
13.24999999999991
 20
0.230000000000056
 30
0.0
 11
13.33999999999993
 21
0.230000000000056
 31
0.0
  0
LINE
  5
B5
330
73
100
AcDbEntity
  8
0
 62
     8
100
AcDbLine
 10
7.399999999999942
 20
0.0
 30
0.0
 11
13.24999999999991
 21
0.0000000000000361
 31
0.0
  0
LINE
  5
B6
330
73
100
AcDbEntity
  8
0
 62
     0
100
AcDbLine
 10
0.1999999999999545
 20
0.9500000000000006
 30
0.0
 11
0.1999999999999545
 21
0.0
 31
0.0
  0
LINE
  5
B7
330
73
100
AcDbEntity
  8
0
 62
     0
100
AcDbLine
 10
0.1999999999999545
 20
0.0
 30
0.0
 11
0.0
 21
0.0
 31
0.0
  0
LINE
  5
B8
330
73
100
AcDbEntity
  8
0
 62
     0
100
AcDbLine
 10
0.0
 20
0.0
 30
0.0
 11
0.0
 21
0.9500000000000006
 31
0.0
  0
LINE
  5
B9
330
73
100
AcDbEntity
  8
0
 62
     0
100
AcDbLine
 10
0.0
 20
0.9500000000000006
 30
0.0
 11
0.1999999999999545
 21
0.9500000000000006
 31
0.0
  0
LINE
  5
BA
330
73
100
AcDbEntity
  8
0
 62
     0
100
AcDbLine
 10
13.69999999999992
 20
0.9500000000000367
 30
0.0
 11
13.69999999999992
 21
0.0000000000000361
 31
0.0
  0
LINE
  5
BB
330
73
100
AcDbEntity
  8
0
 62
     0
100
AcDbLine
 10
13.69999999999992
 20
0.0000000000000361
 30
0.0
 11
13.89999999999991
 21
0.0000000000000361
 31
0.0
  0
LINE
  5
BC
330
73
100
AcDbEntity
  8
0
 62
     0
100
AcDbLine
 10
13.89999999999991
 20
0.0000000000000361
 30
0.0
 11
13.89999999999991
 21
0.9500000000000367
 31
0.0
  0
LINE
  5
BD
330
73
100
AcDbEntity
  8
0
 62
     0
100
AcDbLine
 10
13.89999999999991
 20
0.9500000000000367
 30
0.0
 11
13.69999999999992
 21
0.9500000000000367
 31
0.0
  0
ENDBLK
  5
75
330
73
100
AcDbEntity
  8
0
100
AcDbBlockEnd
  0
BLOCK
  5
77
330
76
100
AcDbEntity
  8
0
100
AcDbBlockBegin
  2
VENTANA_2
 70
     0
 10
0.0
 20
0.0
 30
0.0
  3
VENTANA_2
  1

  0
INSERT
  5
BE
330
76
100
AcDbEntity
  8
0
 62
     0
100
AcDbBlockReference
 66
     1
  2
UNIR_2
 10
0.0
 20
0.0
 30
0.0
  0
ATTRIB
  5
BF
330
BE
100
AcDbEntity
  8
0
100
AcDbText
 10
0.0
 20
0.0
 30
0.0
 40
1.0
  1
Unir
100
AcDbAttribute
  2
Skp_GroupInstanceName
 70
     0
  0
SEQEND
  5
C0
330
BE
100
AcDbEntity
  8
0
 62
     0
  0
ENDBLK
  5
78
330
76
100
AcDbEntity
  8
0
100
AcDbBlockEnd
  0
BLOCK
  5
7A
330
79
100
AcDbEntity
  8
0
100
AcDbBlockBegin
  2
VENTANA_3
 70
     0
 10
0.0
 20
0.0
 30
0.0
  3
VENTANA_3
  1

  0
INSERT
  5
C1
330
79
100
AcDbEntity
  8
0
 62
     0
100
AcDbBlockReference
 66
     1
  2
UNIR_2
 10
0.0
 20
0.0
 30
0.0
  0
ATTRIB
  5
C2
330
C1
100
AcDbEntity
  8
0
100
AcDbText
 10
0.0
 20
0.0
 30
0.0
 40
1.0
  1
Unir
100
AcDbAttribute
  2
Skp_GroupInstanceName
 70
     0
  0
SEQEND
  5
C3
330
C1
100
AcDbEntity
  8
0
 62
     0
  0
ENDBLK
  5
7B
330
79
100
AcDbEntity
  8
0
100
AcDbBlockEnd
  0
BLOCK
  5
7D
330
7C
100
AcDbEntity
  8
0
100
AcDbBlockBegin
  2
UNIR_2
 70
     0
 10
0.0
 20
0.0
 30
0.0
  3
UNIR_2
  1

  0
POLYLINE
  5
C5
330
7C
100
AcDbEntity
  8
0
 62
     0
100
AcDbPolyFaceMesh
 66
     1
 10
0.0
 20
0.0
 30
0.0
 70
    64
 71
     4
 72
     2
1001
ACAD_MATERIAL_MAPPER
1070
     1
1070
     1
1070
     1
1011
0.0
1021
-0.0000000000000003
1031
0.0
1011
0.0
1021
2.54
1031
0.0
1011
0.0
1021
-0.0000000000000003
1031
2.54
1011
1.0
1021
-0.0000000000000003
1031
0.0
  0
VERTEX
  5
C6
330
C5
100
AcDbEntity
  8
0
 62
     0
100
AcDbVertex
100
AcDbPolyFaceMeshVertex
 10
3.600000000000264
 20
4.499999999999699
 30
3.600000000000001
 70
   192
  0
VERTEX
  5
C7
330
C5
100
AcDbEntity
  8
0
 62
     0
100
AcDbVertex
100
AcDbPolyFaceMeshVertex
 10
3.600000000000246
 20
1.699999999999974
 30
102.3999999999997
 70
   192
  0
VERTEX
  5
C8
330
C5
100
AcDbEntity
  8
0
 62
     0
100
AcDbVertex
100
AcDbPolyFaceMeshVertex
 10
3.600000000000264
 20
1.699999999999974
 30
3.600000000000001
 70
   192
  0
VERTEX
  5
C9
330
C5
100
AcDbEntity
  8
0
 62
     0
100
AcDbVertex
100
AcDbPolyFaceMeshVertex
 10
3.600000000000246
 20
4.499999999999699
 30
102.3999999999997
 70
   192
  0
VERTEX
  5
CA
330
C5
100
AcDbEntity
  8
0
 62
     0
100
AcDbFaceRecord
 10
0.0
 20
0.0
 30
0.0
 70
   128
 71
    -1
 72
     2
 73
     3
  0
VERTEX
  5
CB
330
C5
100
AcDbEntity
  8
0
 62
     0
100
AcDbFaceRecord
 10
0.0
 20
0.0
 30
0.0
 70
   128
 71
    -2
 72
     1
 73
     4
  0
SEQEND
  5
CC
330
C5
100
AcDbEntity
  8
0
 62
     0
  0
LINE
  5
CD
330
7C
100
AcDbEntity
  8
0
 62
     0
100
AcDbLine
 10
3.600000000000264
 20
1.699999999999974
 30
3.600000000000001
 11
3.600000000000246
 21
1.699999999999974
 31
102.3999999999997
  0
LINE
  5
CE
330
7C
100
AcDbEntity
  8
0
 62
     0
100
AcDbLine
 10
3.600000000000264
 20
4.499999999999699
 30
3.600000000000001
 11
3.600000000000264
 21
1.699999999999974
 31
3.600000000000001
  0
LINE
  5
CF
330
7C
100
AcDbEntity
  8
0
 62
     0
100
AcDbLine
 10
3.600000000000264
 20
4.499999999999699
 30
3.600000000000001
 11
3.600000000000246
 21
4.499999999999699
 31
102.3999999999997
  0
LINE
  5
D0
330
7C
100
AcDbEntity
  8
0
 62
     0
100
AcDbLine
 10
3.600000000000246
 20
4.499999999999699
 30
102.3999999999997
 11
3.600000000000246
 21
1.699999999999974
 31
102.3999999999997
  0
POLYLINE
  5
D1
330
7C
100
AcDbEntity
  8
0
 62
     0
100
AcDbPolyFaceMesh
 66
     1
 10
0.0
 20
0.0
 30
0.0
 70
    64
 71
     4
 72
     2
1001
ACAD_MATERIAL_MAPPER
1070
     1
1070
     1
1070
     1
1011
0.0
1021
0.0
1031
0.0
1011
-2.54
1021
0.0
1031
0.0
1011
0.0
1021
2.54
1031
0.0
1011
0.0
1021
0.0
1031
1.0
  0
VERTEX
  5
D2
330
D1
100
AcDbEntity
  8
0
 62
     0
100
AcDbVertex
100
AcDbPolyFaceMeshVertex
 10
67.50000000000021
 20
4.499999999999699
 30
0.0
 70
   192
  0
VERTEX
  5
D3
330
D1
100
AcDbEntity
  8
0
 62
     0
100
AcDbVertex
100
AcDbPolyFaceMeshVertex
 10
0.0
 20
0.0
 30
0.0
 70
   192
  0
VERTEX
  5
D4
330
D1
100
AcDbEntity
  8
0
 62
     0
100
AcDbVertex
100
AcDbPolyFaceMeshVertex
 10
0.0
 20
4.499999999999699
 30
0.0
 70
   192
  0
VERTEX
  5
D5
330
D1
100
AcDbEntity
  8
0
 62
     0
100
AcDbVertex
100
AcDbPolyFaceMeshVertex
 10
67.50000000000021
 20
0.0
 30
0.0
 70
   192
  0
VERTEX
  5
D6
330
D1
100
AcDbEntity
  8
0
 62
     0
100
AcDbFaceRecord
 10
0.0
 20
0.0
 30
0.0
 70
   128
 71
    -1
 72
     2
 73
     3
  0
VERTEX
  5
D7
330
D1
100
AcDbEntity
  8
0
 62
     0
100
AcDbFaceRecord
 10
0.0
 20
0.0
 30
0.0
 70
   128
 71
    -2
 72
     1
 73
     4
  0
SEQEND
  5
D8
330
D1
100
AcDbEntity
  8
0
 62
     0
  0
LINE
  5
D9
330
7C
100
AcDbEntity
  8
0
 62
     0
100
AcDbLine
 10
0.0
 20
4.499999999999699
 30
0.0
 11
67.50000000000021
 21
4.499999999999699
 31
0.0
  0
LINE
  5
DA
330
7C
100
AcDbEntity
  8
0
 62
     0
100
AcDbLine
 10
67.50000000000021
 20
0.0
 30
0.0
 11
67.50000000000021
 21
4.499999999999699
 31
0.0
  0
LINE
  5
DB
330
7C
100
AcDbEntity
  8
0
 62
     0
100
AcDbLine
 10
67.50000000000021
 20
0.0
 30
0.0
 11
0.0
 21
0.0
 31
0.0
  0
LINE
  5
DC
330
7C
100
AcDbEntity
  8
0
 62
     0
100
AcDbLine
 10
0.0
 20
0.0
 30
0.0
 11
0.0
 21
4.499999999999699
 31
0.0
  0
POLYLINE
  5
DD
330
7C
100
AcDbEntity
  8
0
 62
     0
100
AcDbPolyFaceMesh
 66
     1
 10
0.0
 20
0.0
 30
0.0
 70
    64
 71
     4
 72
     2
1001
ACAD_MATERIAL_MAPPER
1070
     1
1070
     1
1070
     1
1011
0.0
1021
0.0
1031
0.0
1011
0.0
1021
2.54
1031
0.0
1011
0.0
1021
0.0
1031
2.54
1011
1.0
1021
0.0
1031
0.0
  0
VERTEX
  5
DE
330
DD
100
AcDbEntity
  8
0
 62
     0
100
AcDbVertex
100
AcDbPolyFaceMeshVertex
 10
4.50000000000006
 20
1.699999999999974
 30
4.5
 70
   192
  0
VERTEX
  5
DF
330
DD
100
AcDbEntity
  8
0
 62
     0
100
AcDbVertex
100
AcDbPolyFaceMeshVertex
 10
4.50000000000006
 20
0.0
 30
101.4999999999999
 70
   192
  0
VERTEX
  5
E0
330
DD
100
AcDbEntity
  8
0
 62
     0
100
AcDbVertex
100
AcDbPolyFaceMeshVertex
 10
4.50000000000006
 20
0.0
 30
4.5
 70
   192
  0
VERTEX
  5
E1
330
DD
100
AcDbEntity
  8
0
 62
     0
100
AcDbVertex
100
AcDbPolyFaceMeshVertex
 10
4.50000000000006
 20
1.699999999999974
 30
101.4999999999999
 70
   192
  0
VERTEX
  5
E2
330
DD
100
AcDbEntity
  8
0
 62
     0
100
AcDbFaceRecord
 10
0.0
 20
0.0
 30
0.0
 70
   128
 71
    -1
 72
     2
 73
     3
  0
VERTEX
  5
E3
330
DD
100
AcDbEntity
  8
0
 62
     0
100
AcDbFaceRecord
 10
0.0
 20
0.0
 30
0.0
 70
   128
 71
    -2
 72
     1
 73
     4
  0
SEQEND
  5
E4
330
DD
100
AcDbEntity
  8
0
 62
     0
  0
LINE
  5
E5
330
7C
100
AcDbEntity
  8
0
 62
     0
100
AcDbLine
 10
4.50000000000006
 20
0.0
 30
4.5
 11
4.50000000000006
 21
0.0
 31
101.4999999999999
  0
LINE
  5
E6
330
7C
100
AcDbEntity
  8
0
 62
     0
100
AcDbLine
 10
4.50000000000006
 20
0.0
 30
4.5
 11
4.50000000000006
 21
1.699999999999974
 31
4.5
  0
LINE
  5
E7
330
7C
100
AcDbEntity
  8
0
 62
     0
100
AcDbLine
 10
4.50000000000006
 20
1.699999999999974
 30
4.5
 11
4.50000000000006
 21
1.699999999999974
 31
101.4999999999999
  0
LINE
  5
E8
330
7C
100
AcDbEntity
  8
0
 62
     0
100
AcDbLine
 10
4.50000000000006
 20
1.699999999999974
 30
101.4999999999999
 11
4.50000000000006
 21
0.0
 31
101.4999999999999
  0
POLYLINE
  5
E9
330
7C
100
AcDbEntity
  8
0
 62
     0
100
AcDbPolyFaceMesh
 66
     1
 10
0.0
 20
0.0
 30
0.0
 70
    64
 71
     4
 72
     2
1001
ACAD_MATERIAL_MAPPER
1070
     1
1070
     1
1070
     1
1011
0.0
1021
0.0
1031
0.0
1011
0.0
1021
-2.54
1031
0.0
1011
0.0
1021
0.0
1031
2.54
1011
1.0
1021
0.0
1031
0.0
  0
VERTEX
  5
EA
330
E9
100
AcDbEntity
  8
0
 62
     0
100
AcDbVertex
100
AcDbPolyFaceMeshVertex
 10
0.0
 20
4.499999999999699
 30
106.0
 70
   192
  0
VERTEX
  5
EB
330
E9
100
AcDbEntity
  8
0
 62
     0
100
AcDbVertex
100
AcDbPolyFaceMeshVertex
 10
0.0
 20
0.0
 30
0.0
 70
   192
  0
VERTEX
  5
EC
330
E9
100
AcDbEntity
  8
0
 62
     0
100
AcDbVertex
100
AcDbPolyFaceMeshVertex
 10
0.0
 20
0.0
 30
106.0
 70
   192
  0
VERTEX
  5
ED
330
E9
100
AcDbEntity
  8
0
 62
     0
100
AcDbVertex
100
AcDbPolyFaceMeshVertex
 10
0.0
 20
4.499999999999699
 30
0.0
 70
   192
  0
VERTEX
  5
EE
330
E9
100
AcDbEntity
  8
0
 62
     0
100
AcDbFaceRecord
 10
0.0
 20
0.0
 30
0.0
 70
   128
 71
    -1
 72
     2
 73
     3
  0
VERTEX
  5
EF
330
E9
100
AcDbEntity
  8
0
 62
     0
100
AcDbFaceRecord
 10
0.0
 20
0.0
 30
0.0
 70
   128
 71
    -2
 72
     1
 73
     4
  0
SEQEND
  5
F0
330
E9
100
AcDbEntity
  8
0
 62
     0
  0
LINE
  5
F1
330
7C
100
AcDbEntity
  8
0
 62
     0
100
AcDbLine
 10
0.0
 20
0.0
 30
0.0
 11
0.0
 21
4.499999999999699
 31
0.0
  0
LINE
  5
F2
330
7C
100
AcDbEntity
  8
0
 62
     0
100
AcDbLine
 10
0.0
 20
0.0
 30
0.0
 11
0.0
 21
0.0
 31
106.0
  0
LINE
  5
F3
330
7C
100
AcDbEntity
  8
0
 62
     0
100
AcDbLine
 10
0.0
 20
0.0
 30
106.0
 11
0.0
 21
4.499999999999699
 31
106.0
  0
LINE
  5
F4
330
7C
100
AcDbEntity
  8
0
 62
     0
100
AcDbLine
 10
0.0
 20
4.499999999999699
 30
0.0
 11
0.0
 21
4.499999999999699
 31
106.0
  0
POLYLINE
  5
F5
330
7C
100
AcDbEntity
  8
0
 62
     0
100
AcDbPolyFaceMesh
 66
     1
 10
0.0
 20
0.0
 30
0.0
 70
    64
 71
     4
 72
     2
1001
ACAD_MATERIAL_MAPPER
1070
     1
1070
     1
1070
     1
1011
0.0
1021
0.0
1031
0.0
1011
2.54
1021
0.0
1031
0.0
1011
0.0
1021
2.54
1031
0.0
1011
0.0
1021
0.0
1031
1.0
  0
VERTEX
  5
F6
330
F5
100
AcDbEntity
  8
0
 62
     0
100
AcDbVertex
100
AcDbPolyFaceMeshVertex
 10
63.00000000000015
 20
0.0
 30
4.499999999999999
 70
   192
  0
VERTEX
  5
F7
330
F5
100
AcDbEntity
  8
0
 62
     0
100
AcDbVertex
100
AcDbPolyFaceMeshVertex
 10
4.50000000000006
 20
1.699999999999974
 30
4.5
 70
   192
  0
VERTEX
  5
F8
330
F5
100
AcDbEntity
  8
0
 62
     0
100
AcDbVertex
100
AcDbPolyFaceMeshVertex
 10
4.50000000000006
 20
0.0
 30
4.5
 70
   192
  0
VERTEX
  5
F9
330
F5
100
AcDbEntity
  8
0
 62
     0
100
AcDbVertex
100
AcDbPolyFaceMeshVertex
 10
63.00000000000015
 20
1.699999999999974
 30
4.499999999999999
 70
   192
  0
VERTEX
  5
FA
330
F5
100
AcDbEntity
  8
0
 62
     0
100
AcDbFaceRecord
 10
0.0
 20
0.0
 30
0.0
 70
   128
 71
    -1
 72
     2
 73
     3
  0
VERTEX
  5
FB
330
F5
100
AcDbEntity
  8
0
 62
     0
100
AcDbFaceRecord
 10
0.0
 20
0.0
 30
0.0
 70
   128
 71
    -2
 72
     1
 73
     4
  0
SEQEND
  5
FC
330
F5
100
AcDbEntity
  8
0
 62
     0
  0
LINE
  5
FD
330
7C
100
AcDbEntity
  8
0
 62
     0
100
AcDbLine
 10
63.00000000000015
 20
1.699999999999974
 30
4.499999999999999
 11
63.00000000000015
 21
0.0
 31
4.499999999999999
  0
LINE
  5
FE
330
7C
100
AcDbEntity
  8
0
 62
     0
100
AcDbLine
 10
63.00000000000015
 20
1.699999999999974
 30
4.499999999999999
 11
4.50000000000006
 21
1.699999999999974
 31
4.5
  0
LINE
  5
FF
330
7C
100
AcDbEntity
  8
0
 62
     0
100
AcDbLine
 10
4.50000000000006
 20
0.0
 30
4.5
 11
4.50000000000006
 21
1.699999999999974
 31
4.5
  0
LINE
  5
100
330
7C
100
AcDbEntity
  8
0
 62
     0
100
AcDbLine
 10
63.00000000000015
 20
0.0
 30
4.499999999999999
 11
4.50000000000006
 21
0.0
 31
4.5
  0
POLYLINE
  5
101
330
7C
100
AcDbEntity
  8
0
 62
     0
100
AcDbPolyFaceMesh
 66
     1
 10
0.0
 20
0.0
 30
0.0
 70
    64
 71
     4
 72
     2
1001
ACAD_MATERIAL_MAPPER
1070
     1
1070
     1
1070
     1
1011
0.0
1021
0.0
1031
0.0
1011
2.54
1021
0.0
1031
0.0
1011
0.0
1021
2.54
1031
0.0
1011
0.0
1021
0.0
1031
1.0
  0
VERTEX
  5
102
330
101
100
AcDbEntity
  8
0
 62
     0
100
AcDbVertex
100
AcDbPolyFaceMeshVertex
 10
63.89999999999995
 20
1.700000000000119
 30
3.599999999999995
 70
   192
  0
VERTEX
  5
103
330
101
100
AcDbEntity
  8
0
 62
     0
100
AcDbVertex
100
AcDbPolyFaceMeshVertex
 10
3.600000000000264
 20
4.499999999999699
 30
3.600000000000001
 70
   192
  0
VERTEX
  5
104
330
101
100
AcDbEntity
  8
0
 62
     0
100
AcDbVertex
100
AcDbPolyFaceMeshVertex
 10
3.600000000000264
 20
1.699999999999974
 30
3.600000000000001
 70
   192
  0
VERTEX
  5
105
330
101
100
AcDbEntity
  8
0
 62
     0
100
AcDbVertex
100
AcDbPolyFaceMeshVertex
 10
63.90000000000067
 20
4.499999999999843
 30
3.599999999999995
 70
   192
  0
VERTEX
  5
106
330
101
100
AcDbEntity
  8
0
 62
     0
100
AcDbFaceRecord
 10
0.0
 20
0.0
 30
0.0
 70
   128
 71
    -1
 72
     2
 73
     3
  0
VERTEX
  5
107
330
101
100
AcDbEntity
  8
0
 62
     0
100
AcDbFaceRecord
 10
0.0
 20
0.0
 30
0.0
 70
   128
 71
    -2
 72
     1
 73
     4
  0
SEQEND
  5
108
330
101
100
AcDbEntity
  8
0
 62
     0
  0
LINE
  5
109
330
7C
100
AcDbEntity
  8
0
 62
     0
100
AcDbLine
 10
3.600000000000264
 20
4.499999999999699
 30
3.600000000000001
 11
63.90000000000067
 21
4.499999999999843
 31
3.599999999999995
  0
LINE
  5
10A
330
7C
100
AcDbEntity
  8
0
 62
     0
100
AcDbLine
 10
3.600000000000264
 20
4.499999999999699
 30
3.600000000000001
 11
3.600000000000264
 21
1.699999999999974
 31
3.600000000000001
  0
LINE
  5
10B
330
7C
100
AcDbEntity
  8
0
 62
     0
100
AcDbLine
 10
63.89999999999995
 20
1.700000000000119
 30
3.599999999999995
 11
3.600000000000264
 21
1.699999999999974
 31
3.600000000000001
  0
LINE
  5
10C
330
7C
100
AcDbEntity
  8
0
 62
     0
100
AcDbLine
 10
63.90000000000067
 20
4.499999999999843
 30
3.599999999999995
 11
63.89999999999995
 21
1.700000000000119
 31
3.599999999999995
  0
POLYLINE
  5
10D
330
7C
100
AcDbEntity
  8
0
 62
     0
100
AcDbPolyFaceMesh
 66
     1
 10
0.0
 20
0.0
 30
0.0
 70
    64
 71
     4
 72
     2
1001
ACAD_MATERIAL_MAPPER
1070
     1
1070
     1
1070
     1
1011
0.0
1021
-0.0000000000054917
1031
0.0000000000002439
1011
0.0
1021
-2.540000000005491
1031
0.0000000000002439
1011
0.0
1021
-0.0000000000054917
1031
2.540000000000243
1011
1.0
1021
-0.0000000000054917
1031
0.0000000000002439
  0
VERTEX
  5
10E
330
10D
100
AcDbEntity
  8
0
 62
     0
100
AcDbVertex
100
AcDbPolyFaceMeshVertex
 10
63.89999999999987
 20
4.499999999999843
 30
102.3999999999997
 70
   192
  0
VERTEX
  5
10F
330
10D
100
AcDbEntity
  8
0
 62
     0
100
AcDbVertex
100
AcDbPolyFaceMeshVertex
 10
63.89999999999995
 20
1.700000000000119
 30
3.599999999999995
 70
   192
  0
VERTEX
  5
110
330
10D
100
AcDbEntity
  8
0
 62
     0
100
AcDbVertex
100
AcDbPolyFaceMeshVertex
 10
63.89999999999987
 20
1.700000000000119
 30
102.3999999999997
 70
   192
  0
VERTEX
  5
111
330
10D
100
AcDbEntity
  8
0
 62
     0
100
AcDbVertex
100
AcDbPolyFaceMeshVertex
 10
63.90000000000067
 20
4.499999999999843
 30
3.599999999999995
 70
   192
  0
VERTEX
  5
112
330
10D
100
AcDbEntity
  8
0
 62
     0
100
AcDbFaceRecord
 10
0.0
 20
0.0
 30
0.0
 70
   128
 71
    -1
 72
     2
 73
     3
  0
VERTEX
  5
113
330
10D
100
AcDbEntity
  8
0
 62
     0
100
AcDbFaceRecord
 10
0.0
 20
0.0
 30
0.0
 70
   128
 71
    -2
 72
     1
 73
     4
  0
SEQEND
  5
114
330
10D
100
AcDbEntity
  8
0
 62
     0
  0
LINE
  5
115
330
7C
100
AcDbEntity
  8
0
 62
     0
100
AcDbLine
 10
63.89999999999995
 20
1.700000000000119
 30
3.599999999999995
 11
63.89999999999987
 21
1.700000000000119
 31
102.3999999999997
  0
LINE
  5
116
330
7C
100
AcDbEntity
  8
0
 62
     0
100
AcDbLine
 10
63.89999999999987
 20
4.499999999999843
 30
102.3999999999997
 11
63.89999999999987
 21
1.700000000000119
 31
102.3999999999997
  0
LINE
  5
117
330
7C
100
AcDbEntity
  8
0
 62
     0
100
AcDbLine
 10
63.90000000000067
 20
4.499999999999843
 30
3.599999999999995
 11
63.89999999999987
 21
4.499999999999843
 31
102.3999999999997
  0
LINE
  5
118
330
7C
100
AcDbEntity
  8
0
 62
     0
100
AcDbLine
 10
63.90000000000067
 20
4.499999999999843
 30
3.599999999999995
 11
63.89999999999995
 21
1.700000000000119
 31
3.599999999999995
  0
POLYLINE
  5
119
330
7C
100
AcDbEntity
  8
0
 62
     0
100
AcDbPolyFaceMesh
 66
     1
 10
0.0
 20
0.0
 30
0.0
 70
    64
 71
     8
 72
     8
1001
ACAD_MATERIAL_MAPPER
1070
     1
1070
     1
1070
     1
1011
-0.0000000000000003
1021
0.0
1031
-0.0000000000000001
1011
-2.540000000000001
1021
0.0
1031
-0.0000000000000001
1011
-0.0000000000000003
1021
0.0
1031
2.54
1011
-0.0000000000000003
1021
1.0
1031
-0.0000000000000001
  0
VERTEX
  5
11A
330
119
100
AcDbEntity
  8
0
 62
     0
100
AcDbVertex
100
AcDbPolyFaceMeshVertex
 10
0.0
 20
4.499999999999699
 30
0.0
 70
   192
  0
VERTEX
  5
11B
330
119
100
AcDbEntity
  8
0
 62
     0
100
AcDbVertex
100
AcDbPolyFaceMeshVertex
 10
3.600000000000264
 20
4.499999999999699
 30
3.600000000000001
 70
   192
  0
VERTEX
  5
11C
330
119
100
AcDbEntity
  8
0
 62
     0
100
AcDbVertex
100
AcDbPolyFaceMeshVertex
 10
67.50000000000021
 20
4.499999999999699
 30
0.0
 70
   192
  0
VERTEX
  5
11D
330
119
100
AcDbEntity
  8
0
 62
     0
100
AcDbVertex
100
AcDbPolyFaceMeshVertex
 10
0.0
 20
4.499999999999699
 30
106.0
 70
   192
  0
VERTEX
  5
11E
330
119
100
AcDbEntity
  8
0
 62
     0
100
AcDbVertex
100
AcDbPolyFaceMeshVertex
 10
63.90000000000067
 20
4.499999999999843
 30
3.599999999999995
 70
   192
  0
VERTEX
  5
11F
330
119
100
AcDbEntity
  8
0
 62
     0
100
AcDbVertex
100
AcDbPolyFaceMeshVertex
 10
3.600000000000246
 20
4.499999999999699
 30
102.3999999999997
 70
   192
  0
VERTEX
  5
120
330
119
100
AcDbEntity
  8
0
 62
     0
100
AcDbVertex
100
AcDbPolyFaceMeshVertex
 10
67.50000000000021
 20
4.499999999999699
 30
106.0
 70
   192
  0
VERTEX
  5
121
330
119
100
AcDbEntity
  8
0
 62
     0
100
AcDbVertex
100
AcDbPolyFaceMeshVertex
 10
63.89999999999987
 20
4.499999999999843
 30
102.3999999999997
 70
   192
  0
VERTEX
  5
122
330
119
100
AcDbEntity
  8
0
 62
     0
100
AcDbFaceRecord
 10
0.0
 20
0.0
 30
0.0
 70
   128
 71
    -1
 72
    -2
 73
     3
  0
VERTEX
  5
123
330
119
100
AcDbEntity
  8
0
 62
     0
100
AcDbFaceRecord
 10
0.0
 20
0.0
 30
0.0
 70
   128
 71
    -2
 72
     1
 73
    -4
  0
VERTEX
  5
124
330
119
100
AcDbEntity
  8
0
 62
     0
100
AcDbFaceRecord
 10
0.0
 20
0.0
 30
0.0
 70
   128
 71
    -3
 72
     2
 73
    -5
  0
VERTEX
  5
125
330
119
100
AcDbEntity
  8
0
 62
     0
100
AcDbFaceRecord
 10
0.0
 20
0.0
 30
0.0
 70
   128
 71
    -2
 72
    -4
 73
     6
  0
VERTEX
  5
126
330
119
100
AcDbEntity
  8
0
 62
     0
100
AcDbFaceRecord
 10
0.0
 20
0.0
 30
0.0
 70
   128
 71
    -5
 72
     7
 73
    -3
  0
VERTEX
  5
127
330
119
100
AcDbEntity
  8
0
 62
     0
100
AcDbFaceRecord
 10
0.0
 20
0.0
 30
0.0
 70
   128
 71
    -7
 72
     5
 73
    -8
  0
VERTEX
  5
128
330
119
100
AcDbEntity
  8
0
 62
     0
100
AcDbFaceRecord
 10
0.0
 20
0.0
 30
0.0
 70
   128
 71
    -7
 72
     8
 73
    -6
  0
VERTEX
  5
129
330
119
100
AcDbEntity
  8
0
 62
     0
100
AcDbFaceRecord
 10
0.0
 20
0.0
 30
0.0
 70
   128
 71
    -7
 72
    -6
 73
     4
  0
SEQEND
  5
12A
330
119
100
AcDbEntity
  8
0
 62
     0
  0
LINE
  5
12B
330
7C
100
AcDbEntity
  8
0
 62
     0
100
AcDbLine
 10
0.0
 20
4.499999999999699
 30
0.0
 11
0.0
 21
4.499999999999699
 31
106.0
  0
LINE
  5
12C
330
7C
100
AcDbEntity
  8
0
 62
     0
100
AcDbLine
 10
67.50000000000021
 20
4.499999999999699
 30
106.0
 11
0.0
 21
4.499999999999699
 31
106.0
  0
LINE
  5
12D
330
7C
100
AcDbEntity
  8
0
 62
     0
100
AcDbLine
 10
67.50000000000021
 20
4.499999999999699
 30
0.0
 11
67.50000000000021
 21
4.499999999999699
 31
106.0
  0
LINE
  5
12E
330
7C
100
AcDbEntity
  8
0
 62
     0
100
AcDbLine
 10
0.0
 20
4.499999999999699
 30
0.0
 11
67.50000000000021
 21
4.499999999999699
 31
0.0
  0
LINE
  5
12F
330
7C
100
AcDbEntity
  8
0
 62
     0
100
AcDbLine
 10
63.90000000000067
 20
4.499999999999843
 30
3.599999999999995
 11
63.89999999999987
 21
4.499999999999843
 31
102.3999999999997
  0
LINE
  5
130
330
7C
100
AcDbEntity
  8
0
 62
     0
100
AcDbLine
 10
3.600000000000246
 20
4.499999999999699
 30
102.3999999999997
 11
63.89999999999987
 21
4.499999999999843
 31
102.3999999999997
  0
LINE
  5
131
330
7C
100
AcDbEntity
  8
0
 62
     0
100
AcDbLine
 10
3.600000000000264
 20
4.499999999999699
 30
3.600000000000001
 11
3.600000000000246
 21
4.499999999999699
 31
102.3999999999997
  0
LINE
  5
132
330
7C
100
AcDbEntity
  8
0
 62
     0
100
AcDbLine
 10
3.600000000000264
 20
4.499999999999699
 30
3.600000000000001
 11
63.90000000000067
 21
4.499999999999843
 31
3.599999999999995
  0
POLYLINE
  5
133
330
7C
100
AcDbEntity
  8
0
 62
     0
100
AcDbPolyFaceMesh
 66
     1
 10
0.0
 20
0.0
 30
0.0
 70
    64
 71
     4
 72
     2
1001
ACAD_MATERIAL_MAPPER
1070
     1
1070
     1
1070
     1
1011
0.0
1021
0.0000000000000215
1031
0.0
1011
0.0
1021
2.540000000000022
1031
0.0
1011
0.0
1021
0.0000000000000215
1031
2.54
1011
1.0
1021
0.0000000000000215
1031
0.0
  0
VERTEX
  5
134
330
133
100
AcDbEntity
  8
0
 62
     0
100
AcDbVertex
100
AcDbPolyFaceMeshVertex
 10
67.50000000000021
 20
4.499999999999699
 30
0.0
 70
   192
  0
VERTEX
  5
135
330
133
100
AcDbEntity
  8
0
 62
     0
100
AcDbVertex
100
AcDbPolyFaceMeshVertex
 10
67.50000000000021
 20
0.0
 30
106.0
 70
   192
  0
VERTEX
  5
136
330
133
100
AcDbEntity
  8
0
 62
     0
100
AcDbVertex
100
AcDbPolyFaceMeshVertex
 10
67.50000000000021
 20
0.0
 30
0.0
 70
   192
  0
VERTEX
  5
137
330
133
100
AcDbEntity
  8
0
 62
     0
100
AcDbVertex
100
AcDbPolyFaceMeshVertex
 10
67.50000000000021
 20
4.499999999999699
 30
106.0
 70
   192
  0
VERTEX
  5
138
330
133
100
AcDbEntity
  8
0
 62
     0
100
AcDbFaceRecord
 10
0.0
 20
0.0
 30
0.0
 70
   128
 71
    -1
 72
     2
 73
     3
  0
VERTEX
  5
139
330
133
100
AcDbEntity
  8
0
 62
     0
100
AcDbFaceRecord
 10
0.0
 20
0.0
 30
0.0
 70
   128
 71
    -2
 72
     1
 73
     4
  0
SEQEND
  5
13A
330
133
100
AcDbEntity
  8
0
 62
     0
  0
LINE
  5
13B
330
7C
100
AcDbEntity
  8
0
 62
     0
100
AcDbLine
 10
67.50000000000021
 20
0.0
 30
0.0
 11
67.50000000000021
 21
4.499999999999699
 31
0.0
  0
LINE
  5
13C
330
7C
100
AcDbEntity
  8
0
 62
     0
100
AcDbLine
 10
67.50000000000021
 20
4.499999999999699
 30
0.0
 11
67.50000000000021
 21
4.499999999999699
 31
106.0
  0
LINE
  5
13D
330
7C
100
AcDbEntity
  8
0
 62
     0
100
AcDbLine
 10
67.50000000000021
 20
0.0
 30
106.0
 11
67.50000000000021
 21
4.499999999999699
 31
106.0
  0
LINE
  5
13E
330
7C
100
AcDbEntity
  8
0
 62
     0
100
AcDbLine
 10
67.50000000000021
 20
0.0
 30
0.0
 11
67.50000000000021
 21
0.0
 31
106.0
  0
POLYLINE
  5
13F
330
7C
100
AcDbEntity
  8
0
 62
     0
100
AcDbPolyFaceMesh
 66
     1
 10
0.0
 20
0.0
 30
0.0
 70
    64
 71
     4
 72
     2
1001
ACAD_MATERIAL_MAPPER
1070
     1
1070
     1
1070
     1
1011
0.0
1021
0.0000000000003685
1031
0.0000000000000289
1011
0.0
1021
-2.539999999999631
1031
0.0000000000000289
1011
0.0
1021
0.0000000000003685
1031
2.540000000000029
1011
1.0
1021
0.0000000000003685
1031
0.0000000000000289
  0
VERTEX
  5
140
330
13F
100
AcDbEntity
  8
0
 62
     0
100
AcDbVertex
100
AcDbPolyFaceMeshVertex
 10
63.00000000000004
 20
1.699999999999974
 30
101.4999999999999
 70
   192
  0
VERTEX
  5
141
330
13F
100
AcDbEntity
  8
0
 62
     0
100
AcDbVertex
100
AcDbPolyFaceMeshVertex
 10
63.00000000000015
 20
0.0
 30
4.499999999999999
 70
   192
  0
VERTEX
  5
142
330
13F
100
AcDbEntity
  8
0
 62
     0
100
AcDbVertex
100
AcDbPolyFaceMeshVertex
 10
63.00000000000004
 20
0.0
 30
101.4999999999999
 70
   192
  0
VERTEX
  5
143
330
13F
100
AcDbEntity
  8
0
 62
     0
100
AcDbVertex
100
AcDbPolyFaceMeshVertex
 10
63.00000000000015
 20
1.699999999999974
 30
4.499999999999999
 70
   192
  0
VERTEX
  5
144
330
13F
100
AcDbEntity
  8
0
 62
     0
100
AcDbFaceRecord
 10
0.0
 20
0.0
 30
0.0
 70
   128
 71
    -1
 72
     2
 73
     3
  0
VERTEX
  5
145
330
13F
100
AcDbEntity
  8
0
 62
     0
100
AcDbFaceRecord
 10
0.0
 20
0.0
 30
0.0
 70
   128
 71
    -2
 72
     1
 73
     4
  0
SEQEND
  5
146
330
13F
100
AcDbEntity
  8
0
 62
     0
  0
LINE
  5
147
330
7C
100
AcDbEntity
  8
0
 62
     0
100
AcDbLine
 10
63.00000000000015
 20
0.0
 30
4.499999999999999
 11
63.00000000000004
 21
0.0
 31
101.4999999999999
  0
LINE
  5
148
330
7C
100
AcDbEntity
  8
0
 62
     0
100
AcDbLine
 10
63.00000000000004
 20
1.699999999999974
 30
101.4999999999999
 11
63.00000000000004
 21
0.0
 31
101.4999999999999
  0
LINE
  5
149
330
7C
100
AcDbEntity
  8
0
 62
     0
100
AcDbLine
 10
63.00000000000015
 20
1.699999999999974
 30
4.499999999999999
 11
63.00000000000004
 21
1.699999999999974
 31
101.4999999999999
  0
LINE
  5
14A
330
7C
100
AcDbEntity
  8
0
 62
     0
100
AcDbLine
 10
63.00000000000015
 20
1.699999999999974
 30
4.499999999999999
 11
63.00000000000015
 21
0.0
 31
4.499999999999999
  0
POLYLINE
  5
14B
330
7C
100
AcDbEntity
  8
0
 62
     0
100
AcDbPolyFaceMesh
 66
     1
 10
0.0
 20
0.0
 30
0.0
 70
    64
 71
     8
 72
     8
1001
ACAD_MATERIAL_MAPPER
1070
     1
1070
     1
1070
     1
1011
0.0
1021
0.0
1031
0.0
1011
2.54
1021
0.0
1031
0.0
1011
0.0
1021
0.0
1031
2.54
1011
0.0
1021
1.0
1031
0.0
  0
VERTEX
  5
14C
330
14B
100
AcDbEntity
  8
0
 62
     0
100
AcDbVertex
100
AcDbPolyFaceMeshVertex
 10
67.50000000000021
 20
0.0
 30
0.0
 70
   192
  0
VERTEX
  5
14D
330
14B
100
AcDbEntity
  8
0
 62
     0
100
AcDbVertex
100
AcDbPolyFaceMeshVertex
 10
63.00000000000015
 20
0.0
 30
4.499999999999999
 70
   192
  0
VERTEX
  5
14E
330
14B
100
AcDbEntity
  8
0
 62
     0
100
AcDbVertex
100
AcDbPolyFaceMeshVertex
 10
0.0
 20
0.0
 30
0.0
 70
   192
  0
VERTEX
  5
14F
330
14B
100
AcDbEntity
  8
0
 62
     0
100
AcDbVertex
100
AcDbPolyFaceMeshVertex
 10
67.50000000000021
 20
0.0
 30
106.0
 70
   192
  0
VERTEX
  5
150
330
14B
100
AcDbEntity
  8
0
 62
     0
100
AcDbVertex
100
AcDbPolyFaceMeshVertex
 10
63.00000000000004
 20
0.0
 30
101.4999999999999
 70
   192
  0
VERTEX
  5
151
330
14B
100
AcDbEntity
  8
0
 62
     0
100
AcDbVertex
100
AcDbPolyFaceMeshVertex
 10
4.50000000000006
 20
0.0
 30
101.4999999999999
 70
   192
  0
VERTEX
  5
152
330
14B
100
AcDbEntity
  8
0
 62
     0
100
AcDbVertex
100
AcDbPolyFaceMeshVertex
 10
4.50000000000006
 20
0.0
 30
4.5
 70
   192
  0
VERTEX
  5
153
330
14B
100
AcDbEntity
  8
0
 62
     0
100
AcDbVertex
100
AcDbPolyFaceMeshVertex
 10
0.0
 20
0.0
 30
106.0
 70
   192
  0
VERTEX
  5
154
330
14B
100
AcDbEntity
  8
0
 62
     0
100
AcDbFaceRecord
 10
0.0
 20
0.0
 30
0.0
 70
   128
 71
    -1
 72
    -2
 73
     3
  0
VERTEX
  5
155
330
14B
100
AcDbEntity
  8
0
 62
     0
100
AcDbFaceRecord
 10
0.0
 20
0.0
 30
0.0
 70
   128
 71
    -2
 72
     1
 73
    -4
  0
VERTEX
  5
156
330
14B
100
AcDbEntity
  8
0
 62
     0
100
AcDbFaceRecord
 10
0.0
 20
0.0
 30
0.0
 70
   128
 71
    -2
 72
    -4
 73
     5
  0
VERTEX
  5
157
330
14B
100
AcDbEntity
  8
0
 62
     0
100
AcDbFaceRecord
 10
0.0
 20
0.0
 30
0.0
 70
   128
 71
    -5
 72
    -4
 73
     6
  0
VERTEX
  5
158
330
14B
100
AcDbEntity
  8
0
 62
     0
100
AcDbFaceRecord
 10
0.0
 20
0.0
 30
0.0
 70
   128
 71
    -3
 72
    -7
 73
     8
  0
VERTEX
  5
159
330
14B
100
AcDbEntity
  8
0
 62
     0
100
AcDbFaceRecord
 10
0.0
 20
0.0
 30
0.0
 70
   128
 71
    -7
 72
    -3
 73
     2
  0
VERTEX
  5
15A
330
14B
100
AcDbEntity
  8
0
 62
     0
100
AcDbFaceRecord
 10
0.0
 20
0.0
 30
0.0
 70
   128
 71
    -8
 72
     7
 73
    -6
  0
VERTEX
  5
15B
330
14B
100
AcDbEntity
  8
0
 62
     0
100
AcDbFaceRecord
 10
0.0
 20
0.0
 30
0.0
 70
   128
 71
    -8
 72
    -6
 73
     4
  0
SEQEND
  5
15C
330
14B
100
AcDbEntity
  8
0
 62
     0
  0
LINE
  5
15D
330
7C
100
AcDbEntity
  8
0
 62
     0
100
AcDbLine
 10
0.0
 20
0.0
 30
106.0
 11
67.50000000000021
 21
0.0
 31
106.0
  0
LINE
  5
15E
330
7C
100
AcDbEntity
  8
0
 62
     0
100
AcDbLine
 10
0.0
 20
0.0
 30
0.0
 11
0.0
 21
0.0
 31
106.0
  0
LINE
  5
15F
330
7C
100
AcDbEntity
  8
0
 62
     0
100
AcDbLine
 10
67.50000000000021
 20
0.0
 30
0.0
 11
0.0
 21
0.0
 31
0.0
  0
LINE
  5
160
330
7C
100
AcDbEntity
  8
0
 62
     0
100
AcDbLine
 10
67.50000000000021
 20
0.0
 30
0.0
 11
67.50000000000021
 21
0.0
 31
106.0
  0
LINE
  5
161
330
7C
100
AcDbEntity
  8
0
 62
     0
100
AcDbLine
 10
4.50000000000006
 20
0.0
 30
101.4999999999999
 11
63.00000000000004
 21
0.0
 31
101.4999999999999
  0
LINE
  5
162
330
7C
100
AcDbEntity
  8
0
 62
     0
100
AcDbLine
 10
63.00000000000015
 20
0.0
 30
4.499999999999999
 11
63.00000000000004
 21
0.0
 31
101.4999999999999
  0
LINE
  5
163
330
7C
100
AcDbEntity
  8
0
 62
     0
100
AcDbLine
 10
63.00000000000015
 20
0.0
 30
4.499999999999999
 11
4.50000000000006
 21
0.0
 31
4.5
  0
LINE
  5
164
330
7C
100
AcDbEntity
  8
0
 62
     0
100
AcDbLine
 10
4.50000000000006
 20
0.0
 30
4.5
 11
4.50000000000006
 21
0.0
 31
101.4999999999999
  0
POLYLINE
  5
165
330
7C
100
AcDbEntity
  8
0
 62
     0
100
AcDbPolyFaceMesh
 66
     1
 10
0.0
 20
0.0
 30
0.0
 70
    64
 71
     4
 72
     2
1001
ACAD_MATERIAL_MAPPER
1070
     1
1070
     1
1070
     1
1011
0.0
1021
0.0
1031
0.0
1011
2.54
1021
0.0
1031
0.0
1011
0.0
1021
2.54
1031
0.0
1011
0.0
1021
0.0
1031
1.0
  0
VERTEX
  5
166
330
165
100
AcDbEntity
  8
0
 62
     0
100
AcDbVertex
100
AcDbPolyFaceMeshVertex
 10
67.50000000000021
 20
0.0
 30
106.0
 70
   192
  0
VERTEX
  5
167
330
165
100
AcDbEntity
  8
0
 62
     0
100
AcDbVertex
100
AcDbPolyFaceMeshVertex
 10
0.0
 20
4.499999999999699
 30
106.0
 70
   192
  0
VERTEX
  5
168
330
165
100
AcDbEntity
  8
0
 62
     0
100
AcDbVertex
100
AcDbPolyFaceMeshVertex
 10
0.0
 20
0.0
 30
106.0
 70
   192
  0
VERTEX
  5
169
330
165
100
AcDbEntity
  8
0
 62
     0
100
AcDbVertex
100
AcDbPolyFaceMeshVertex
 10
67.50000000000021
 20
4.499999999999699
 30
106.0
 70
   192
  0
VERTEX
  5
16A
330
165
100
AcDbEntity
  8
0
 62
     0
100
AcDbFaceRecord
 10
0.0
 20
0.0
 30
0.0
 70
   128
 71
    -1
 72
     2
 73
     3
  0
VERTEX
  5
16B
330
165
100
AcDbEntity
  8
0
 62
     0
100
AcDbFaceRecord
 10
0.0
 20
0.0
 30
0.0
 70
   128
 71
    -2
 72
     1
 73
     4
  0
SEQEND
  5
16C
330
165
100
AcDbEntity
  8
0
 62
     0
  0
LINE
  5
16D
330
7C
100
AcDbEntity
  8
0
 62
     0
100
AcDbLine
 10
67.50000000000021
 20
4.499999999999699
 30
106.0
 11
0.0
 21
4.499999999999699
 31
106.0
  0
LINE
  5
16E
330
7C
100
AcDbEntity
  8
0
 62
     0
100
AcDbLine
 10
0.0
 20
0.0
 30
106.0
 11
0.0
 21
4.499999999999699
 31
106.0
  0
LINE
  5
16F
330
7C
100
AcDbEntity
  8
0
 62
     0
100
AcDbLine
 10
0.0
 20
0.0
 30
106.0
 11
67.50000000000021
 21
0.0
 31
106.0
  0
LINE
  5
170
330
7C
100
AcDbEntity
  8
0
 62
     0
100
AcDbLine
 10
67.50000000000021
 20
0.0
 30
106.0
 11
67.50000000000021
 21
4.499999999999699
 31
106.0
  0
POLYLINE
  5
171
330
7C
100
AcDbEntity
  8
0
 62
     0
100
AcDbPolyFaceMesh
 66
     1
 10
0.0
 20
0.0
 30
0.0
 70
    64
 71
     8
 72
     8
1001
ACAD_MATERIAL_MAPPER
1070
     1
1070
     1
1070
     1
1011
0.0000000000000045
1021
0.0
1031
0.0000000000000006
1011
-2.539999999999995
1021
0.0
1031
0.0000000000000005
1011
0.0000000000000032
1021
0.0
1031
2.540000000000002
1011
0.0000000000000045
1021
1.0
1031
0.0000000000000006
  0
VERTEX
  5
172
330
171
100
AcDbEntity
  8
0
 62
     0
100
AcDbVertex
100
AcDbPolyFaceMeshVertex
 10
3.600000000000264
 20
1.699999999999974
 30
3.600000000000001
 70
   192
  0
VERTEX
  5
173
330
171
100
AcDbEntity
  8
0
 62
     0
100
AcDbVertex
100
AcDbPolyFaceMeshVertex
 10
4.50000000000006
 20
1.699999999999974
 30
4.5
 70
   192
  0
VERTEX
  5
174
330
171
100
AcDbEntity
  8
0
 62
     0
100
AcDbVertex
100
AcDbPolyFaceMeshVertex
 10
63.00000000000015
 20
1.699999999999974
 30
4.499999999999999
 70
   192
  0
VERTEX
  5
175
330
171
100
AcDbEntity
  8
0
 62
     0
100
AcDbVertex
100
AcDbPolyFaceMeshVertex
 10
3.600000000000246
 20
1.699999999999974
 30
102.3999999999997
 70
   192
  0
VERTEX
  5
176
330
171
100
AcDbEntity
  8
0
 62
     0
100
AcDbVertex
100
AcDbPolyFaceMeshVertex
 10
4.50000000000006
 20
1.699999999999974
 30
101.4999999999999
 70
   192
  0
VERTEX
  5
177
330
171
100
AcDbEntity
  8
0
 62
     0
100
AcDbVertex
100
AcDbPolyFaceMeshVertex
 10
63.89999999999987
 20
1.700000000000119
 30
102.3999999999997
 70
   192
  0
VERTEX
  5
178
330
171
100
AcDbEntity
  8
0
 62
     0
100
AcDbVertex
100
AcDbPolyFaceMeshVertex
 10
63.89999999999995
 20
1.700000000000119
 30
3.599999999999995
 70
   192
  0
VERTEX
  5
179
330
171
100
AcDbEntity
  8
0
 62
     0
100
AcDbVertex
100
AcDbPolyFaceMeshVertex
 10
63.00000000000004
 20
1.699999999999974
 30
101.4999999999999
 70
   192
  0
VERTEX
  5
17A
330
171
100
AcDbEntity
  8
0
 62
     0
100
AcDbFaceRecord
 10
0.0
 20
0.0
 30
0.0
 70
   128
 71
    -1
 72
     2
 73
    -3
  0
VERTEX
  5
17B
330
171
100
AcDbEntity
  8
0
 62
     0
100
AcDbFaceRecord
 10
0.0
 20
0.0
 30
0.0
 70
   128
 71
    -2
 72
     1
 73
    -4
  0
VERTEX
  5
17C
330
171
100
AcDbEntity
  8
0
 62
     0
100
AcDbFaceRecord
 10
0.0
 20
0.0
 30
0.0
 70
   128
 71
    -2
 72
    -4
 73
     5
  0
VERTEX
  5
17D
330
171
100
AcDbEntity
  8
0
 62
     0
100
AcDbFaceRecord
 10
0.0
 20
0.0
 30
0.0
 70
   128
 71
    -5
 72
     4
 73
    -6
  0
VERTEX
  5
17E
330
171
100
AcDbEntity
  8
0
 62
     0
100
AcDbFaceRecord
 10
0.0
 20
0.0
 30
0.0
 70
   128
 71
    -7
 72
    -3
 73
     6
  0
VERTEX
  5
17F
330
171
100
AcDbEntity
  8
0
 62
     0
100
AcDbFaceRecord
 10
0.0
 20
0.0
 30
0.0
 70
   128
 71
    -3
 72
     7
 73
    -1
  0
VERTEX
  5
180
330
171
100
AcDbEntity
  8
0
 62
     0
100
AcDbFaceRecord
 10
0.0
 20
0.0
 30
0.0
 70
   128
 71
    -6
 72
     3
 73
    -8
  0
VERTEX
  5
181
330
171
100
AcDbEntity
  8
0
 62
     0
100
AcDbFaceRecord
 10
0.0
 20
0.0
 30
0.0
 70
   128
 71
    -6
 72
     8
 73
    -5
  0
SEQEND
  5
182
330
171
100
AcDbEntity
  8
0
 62
     0
  0
LINE
  5
183
330
7C
100
AcDbEntity
  8
0
 62
     0
100
AcDbLine
 10
3.600000000000246
 20
1.699999999999974
 30
102.3999999999997
 11
63.89999999999987
 21
1.700000000000119
 31
102.3999999999997
  0
LINE
  5
184
330
7C
100
AcDbEntity
  8
0
 62
     0
100
AcDbLine
 10
63.89999999999995
 20
1.700000000000119
 30
3.599999999999995
 11
63.89999999999987
 21
1.700000000000119
 31
102.3999999999997
  0
LINE
  5
185
330
7C
100
AcDbEntity
  8
0
 62
     0
100
AcDbLine
 10
63.89999999999995
 20
1.700000000000119
 30
3.599999999999995
 11
3.600000000000264
 21
1.699999999999974
 31
3.600000000000001
  0
LINE
  5
186
330
7C
100
AcDbEntity
  8
0
 62
     0
100
AcDbLine
 10
3.600000000000264
 20
1.699999999999974
 30
3.600000000000001
 11
3.600000000000246
 21
1.699999999999974
 31
102.3999999999997
  0
LINE
  5
187
330
7C
100
AcDbEntity
  8
0
 62
     0
100
AcDbLine
 10
63.00000000000015
 20
1.699999999999974
 30
4.499999999999999
 11
63.00000000000004
 21
1.699999999999974
 31
101.4999999999999
  0
LINE
  5
188
330
7C
100
AcDbEntity
  8
0
 62
     0
100
AcDbLine
 10
4.50000000000006
 20
1.699999999999974
 30
101.4999999999999
 11
63.00000000000004
 21
1.699999999999974
 31
101.4999999999999
  0
LINE
  5
189
330
7C
100
AcDbEntity
  8
0
 62
     0
100
AcDbLine
 10
4.50000000000006
 20
1.699999999999974
 30
4.5
 11
4.50000000000006
 21
1.699999999999974
 31
101.4999999999999
  0
LINE
  5
18A
330
7C
100
AcDbEntity
  8
0
 62
     0
100
AcDbLine
 10
63.00000000000015
 20
1.699999999999974
 30
4.499999999999999
 11
4.50000000000006
 21
1.699999999999974
 31
4.5
  0
POLYLINE
  5
18B
330
7C
100
AcDbEntity
  8
0
 62
     0
100
AcDbPolyFaceMesh
 66
     1
 10
0.0
 20
0.0
 30
0.0
 70
    64
 71
     4
 72
     2
1001
ACAD_MATERIAL_MAPPER
1070
     1
1070
     1
1070
     1
1011
0.0000000000000299
1021
-0.0000000000000005
1031
0.0
1011
-2.53999999999997
1021
-0.0000000000000005
1031
0.0
1011
0.0000000000000299
1021
2.539999999999999
1031
0.0
1011
0.0000000000000299
1021
-0.0000000000000005
1031
1.0
  0
VERTEX
  5
18C
330
18B
100
AcDbEntity
  8
0
 62
     0
100
AcDbVertex
100
AcDbPolyFaceMeshVertex
 10
63.89999999999987
 20
4.499999999999843
 30
102.3999999999997
 70
   192
  0
VERTEX
  5
18D
330
18B
100
AcDbEntity
  8
0
 62
     0
100
AcDbVertex
100
AcDbPolyFaceMeshVertex
 10
3.600000000000246
 20
1.699999999999974
 30
102.3999999999997
 70
   192
  0
VERTEX
  5
18E
330
18B
100
AcDbEntity
  8
0
 62
     0
100
AcDbVertex
100
AcDbPolyFaceMeshVertex
 10
3.600000000000246
 20
4.499999999999699
 30
102.3999999999997
 70
   192
  0
VERTEX
  5
18F
330
18B
100
AcDbEntity
  8
0
 62
     0
100
AcDbVertex
100
AcDbPolyFaceMeshVertex
 10
63.89999999999987
 20
1.700000000000119
 30
102.3999999999997
 70
   192
  0
VERTEX
  5
190
330
18B
100
AcDbEntity
  8
0
 62
     0
100
AcDbFaceRecord
 10
0.0
 20
0.0
 30
0.0
 70
   128
 71
    -1
 72
     2
 73
     3
  0
VERTEX
  5
191
330
18B
100
AcDbEntity
  8
0
 62
     0
100
AcDbFaceRecord
 10
0.0
 20
0.0
 30
0.0
 70
   128
 71
    -2
 72
     1
 73
     4
  0
SEQEND
  5
192
330
18B
100
AcDbEntity
  8
0
 62
     0
  0
LINE
  5
193
330
7C
100
AcDbEntity
  8
0
 62
     0
100
AcDbLine
 10
3.600000000000246
 20
1.699999999999974
 30
102.3999999999997
 11
63.89999999999987
 21
1.700000000000119
 31
102.3999999999997
  0
LINE
  5
194
330
7C
100
AcDbEntity
  8
0
 62
     0
100
AcDbLine
 10
3.600000000000246
 20
4.499999999999699
 30
102.3999999999997
 11
3.600000000000246
 21
1.699999999999974
 31
102.3999999999997
  0
LINE
  5
195
330
7C
100
AcDbEntity
  8
0
 62
     0
100
AcDbLine
 10
3.600000000000246
 20
4.499999999999699
 30
102.3999999999997
 11
63.89999999999987
 21
4.499999999999843
 31
102.3999999999997
  0
LINE
  5
196
330
7C
100
AcDbEntity
  8
0
 62
     0
100
AcDbLine
 10
63.89999999999987
 20
4.499999999999843
 30
102.3999999999997
 11
63.89999999999987
 21
1.700000000000119
 31
102.3999999999997
  0
POLYLINE
  5
197
330
7C
100
AcDbEntity
  8
0
 62
     0
100
AcDbPolyFaceMesh
 66
     1
 10
0.0
 20
0.0
 30
0.0
 70
    64
 71
     4
 72
     2
1001
ACAD_MATERIAL_MAPPER
1070
     1
1070
     1
1070
     1
1011
0.0000000000000297
1021
0.0
1031
0.0
1011
-2.53999999999997
1021
0.0
1031
0.0
1011
0.0000000000000297
1021
2.54
1031
0.0
1011
0.0000000000000297
1021
0.0
1031
1.0
  0
VERTEX
  5
198
330
197
100
AcDbEntity
  8
0
 62
     0
100
AcDbVertex
100
AcDbPolyFaceMeshVertex
 10
63.00000000000004
 20
1.699999999999974
 30
101.4999999999999
 70
   192
  0
VERTEX
  5
199
330
197
100
AcDbEntity
  8
0
 62
     0
100
AcDbVertex
100
AcDbPolyFaceMeshVertex
 10
4.50000000000006
 20
0.0
 30
101.4999999999999
 70
   192
  0
VERTEX
  5
19A
330
197
100
AcDbEntity
  8
0
 62
     0
100
AcDbVertex
100
AcDbPolyFaceMeshVertex
 10
4.50000000000006
 20
1.699999999999974
 30
101.4999999999999
 70
   192
  0
VERTEX
  5
19B
330
197
100
AcDbEntity
  8
0
 62
     0
100
AcDbVertex
100
AcDbPolyFaceMeshVertex
 10
63.00000000000004
 20
0.0
 30
101.4999999999999
 70
   192
  0
VERTEX
  5
19C
330
197
100
AcDbEntity
  8
0
 62
     0
100
AcDbFaceRecord
 10
0.0
 20
0.0
 30
0.0
 70
   128
 71
    -1
 72
     2
 73
     3
  0
VERTEX
  5
19D
330
197
100
AcDbEntity
  8
0
 62
     0
100
AcDbFaceRecord
 10
0.0
 20
0.0
 30
0.0
 70
   128
 71
    -2
 72
     1
 73
     4
  0
SEQEND
  5
19E
330
197
100
AcDbEntity
  8
0
 62
     0
  0
LINE
  5
19F
330
7C
100
AcDbEntity
  8
0
 62
     0
100
AcDbLine
 10
4.50000000000006
 20
1.699999999999974
 30
101.4999999999999
 11
4.50000000000006
 21
0.0
 31
101.4999999999999
  0
LINE
  5
1A0
330
7C
100
AcDbEntity
  8
0
 62
     0
100
AcDbLine
 10
4.50000000000006
 20
1.699999999999974
 30
101.4999999999999
 11
63.00000000000004
 21
1.699999999999974
 31
101.4999999999999
  0
LINE
  5
1A1
330
7C
100
AcDbEntity
  8
0
 62
     0
100
AcDbLine
 10
63.00000000000004
 20
1.699999999999974
 30
101.4999999999999
 11
63.00000000000004
 21
0.0
 31
101.4999999999999
  0
LINE
  5
1A2
330
7C
100
AcDbEntity
  8
0
 62
     0
100
AcDbLine
 10
4.50000000000006
 20
0.0
 30
101.4999999999999
 11
63.00000000000004
 21
0.0
 31
101.4999999999999
  0
ENDBLK
  5
7E
330
7C
100
AcDbEntity
  8
0
100
AcDbBlockEnd
  0
BLOCK
  5
80
330
7F
100
AcDbEntity
  8
0
100
AcDbBlockBegin
  2
GRUPO_1
 70
     0
 10
0.0
 20
0.0
 30
0.0
  3
GRUPO_1
  1

  0
POLYLINE
  5
1A4
330
7F
100
AcDbEntity
  8
0
 62
     7
100
AcDbPolyFaceMesh
 66
     1
 10
0.0
 20
0.0
 30
0.0
 70
    64
 71
     4
 72
     2
1001
ACAD_MATERIAL_MAPPER
1070
     1
1070
     1
1070
     1
1011
0.0
1021
0.0
1031
0.0
1011
0.0
1021
-2.54
1031
0.0
1011
0.0
1021
0.0
1031
2.54
1011
1.0
1021
0.0
1031
0.0
  0
VERTEX
  5
1A5
330
1A4
100
AcDbEntity
  8
0
 62
     7
100
AcDbVertex
100
AcDbPolyFaceMeshVertex
 10
0.0
 20
0.3999999999999993
 30
98.80000000000001
 70
   192
  0
VERTEX
  5
1A6
330
1A4
100
AcDbEntity
  8
0
 62
     7
100
AcDbVertex
100
AcDbPolyFaceMeshVertex
 10
0.0
 20
0.0
 30
0.0
 70
   192
  0
VERTEX
  5
1A7
330
1A4
100
AcDbEntity
  8
0
 62
     7
100
AcDbVertex
100
AcDbPolyFaceMeshVertex
 10
0.0
 20
0.0
 30
98.80000000000001
 70
   192
  0
VERTEX
  5
1A8
330
1A4
100
AcDbEntity
  8
0
 62
     7
100
AcDbVertex
100
AcDbPolyFaceMeshVertex
 10
0.0
 20
0.3999999999999993
 30
0.0
 70
   192
  0
VERTEX
  5
1A9
330
1A4
100
AcDbEntity
  8
0
 62
     7
100
AcDbFaceRecord
 10
0.0
 20
0.0
 30
0.0
 70
   128
 71
    -1
 72
     2
 73
     3
  0
VERTEX
  5
1AA
330
1A4
100
AcDbEntity
  8
0
 62
     7
100
AcDbFaceRecord
 10
0.0
 20
0.0
 30
0.0
 70
   128
 71
    -2
 72
     1
 73
     4
  0
SEQEND
  5
1AB
330
1A4
100
AcDbEntity
  8
0
 62
     7
  0
LINE
  5
1AC
330
7F
100
AcDbEntity
  8
0
 62
     0
100
AcDbLine
 10
0.0
 20
0.0
 30
0.0
 11
0.0
 21
0.3999999999999993
 31
0.0
  0
LINE
  5
1AD
330
7F
100
AcDbEntity
  8
0
 62
     0
100
AcDbLine
 10
0.0
 20
0.0
 30
0.0
 11
0.0
 21
0.0
 31
98.80000000000001
  0
LINE
  5
1AE
330
7F
100
AcDbEntity
  8
0
 62
     0
100
AcDbLine
 10
0.0
 20
0.0
 30
98.80000000000001
 11
0.0
 21
0.3999999999999993
 31
98.80000000000001
  0
LINE
  5
1AF
330
7F
100
AcDbEntity
  8
0
 62
     0
100
AcDbLine
 10
0.0
 20
0.3999999999999993
 30
0.0
 11
0.0
 21
0.3999999999999993
 31
98.80000000000001
  0
POLYLINE
  5
1B0
330
7F
100
AcDbEntity
  8
0
 62
     7
100
AcDbPolyFaceMesh
 66
     1
 10
0.0
 20
0.0
 30
0.0
 70
    64
 71
     4
 72
     2
1001
ACAD_MATERIAL_MAPPER
1070
     1
1070
     1
1070
     1
1011
0.0
1021
0.0
1031
0.0
1011
0.0
1021
2.54
1031
0.0
1011
0.0
1021
0.0
1031
2.54
1011
1.0
1021
0.0
1031
0.0
  0
VERTEX
  5
1B1
330
1B0
100
AcDbEntity
  8
0
 62
     7
100
AcDbVertex
100
AcDbPolyFaceMeshVertex
 10
60.55000000000002
 20
0.3999999999999993
 30
0.0
 70
   192
  0
VERTEX
  5
1B2
330
1B0
100
AcDbEntity
  8
0
 62
     7
100
AcDbVertex
100
AcDbPolyFaceMeshVertex
 10
60.55000000000002
 20
0.0
 30
98.80000000000001
 70
   192
  0
VERTEX
  5
1B3
330
1B0
100
AcDbEntity
  8
0
 62
     7
100
AcDbVertex
100
AcDbPolyFaceMeshVertex
 10
60.55000000000002
 20
0.0
 30
0.0
 70
   192
  0
VERTEX
  5
1B4
330
1B0
100
AcDbEntity
  8
0
 62
     7
100
AcDbVertex
100
AcDbPolyFaceMeshVertex
 10
60.55000000000002
 20
0.3999999999999993
 30
98.80000000000001
 70
   192
  0
VERTEX
  5
1B5
330
1B0
100
AcDbEntity
  8
0
 62
     7
100
AcDbFaceRecord
 10
0.0
 20
0.0
 30
0.0
 70
   128
 71
    -1
 72
     2
 73
     3
  0
VERTEX
  5
1B6
330
1B0
100
AcDbEntity
  8
0
 62
     7
100
AcDbFaceRecord
 10
0.0
 20
0.0
 30
0.0
 70
   128
 71
    -2
 72
     1
 73
     4
  0
SEQEND
  5
1B7
330
1B0
100
AcDbEntity
  8
0
 62
     7
  0
LINE
  5
1B8
330
7F
100
AcDbEntity
  8
0
 62
     0
100
AcDbLine
 10
60.55000000000002
 20
0.3999999999999993
 30
0.0
 11
60.55000000000002
 21
0.0
 31
0.0
  0
LINE
  5
1B9
330
7F
100
AcDbEntity
  8
0
 62
     0
100
AcDbLine
 10
60.55000000000002
 20
0.3999999999999993
 30
0.0
 11
60.55000000000002
 21
0.3999999999999993
 31
98.80000000000001
  0
LINE
  5
1BA
330
7F
100
AcDbEntity
  8
0
 62
     0
100
AcDbLine
 10
60.55000000000002
 20
0.3999999999999993
 30
98.80000000000001
 11
60.55000000000002
 21
0.0
 31
98.80000000000001
  0
LINE
  5
1BB
330
7F
100
AcDbEntity
  8
0
 62
     0
100
AcDbLine
 10
60.55000000000002
 20
0.0
 30
0.0
 11
60.55000000000002
 21
0.0
 31
98.80000000000001
  0
POLYLINE
  5
1BC
330
7F
100
AcDbEntity
  8
0
 62
     7
100
AcDbPolyFaceMesh
 66
     1
 10
0.0
 20
0.0
 30
0.0
 70
    64
 71
     4
 72
     2
1001
ACAD_MATERIAL_MAPPER
1070
     1
1070
     1
1070
     1
1011
0.0
1021
0.0
1031
0.0
1011
2.54
1021
0.0
1031
0.0
1011
0.0
1021
2.54
1031
0.0
1011
0.0
1021
0.0
1031
1.0
  0
VERTEX
  5
1BD
330
1BC
100
AcDbEntity
  8
0
 62
     7
100
AcDbVertex
100
AcDbPolyFaceMeshVertex
 10
60.55000000000002
 20
0.0
 30
98.80000000000001
 70
   192
  0
VERTEX
  5
1BE
330
1BC
100
AcDbEntity
  8
0
 62
     7
100
AcDbVertex
100
AcDbPolyFaceMeshVertex
 10
0.0
 20
0.3999999999999993
 30
98.80000000000001
 70
   192
  0
VERTEX
  5
1BF
330
1BC
100
AcDbEntity
  8
0
 62
     7
100
AcDbVertex
100
AcDbPolyFaceMeshVertex
 10
0.0
 20
0.0
 30
98.80000000000001
 70
   192
  0
VERTEX
  5
1C0
330
1BC
100
AcDbEntity
  8
0
 62
     7
100
AcDbVertex
100
AcDbPolyFaceMeshVertex
 10
60.55000000000002
 20
0.3999999999999993
 30
98.80000000000001
 70
   192
  0
VERTEX
  5
1C1
330
1BC
100
AcDbEntity
  8
0
 62
     7
100
AcDbFaceRecord
 10
0.0
 20
0.0
 30
0.0
 70
   128
 71
    -1
 72
     2
 73
     3
  0
VERTEX
  5
1C2
330
1BC
100
AcDbEntity
  8
0
 62
     7
100
AcDbFaceRecord
 10
0.0
 20
0.0
 30
0.0
 70
   128
 71
    -2
 72
     1
 73
     4
  0
SEQEND
  5
1C3
330
1BC
100
AcDbEntity
  8
0
 62
     7
  0
LINE
  5
1C4
330
7F
100
AcDbEntity
  8
0
 62
     0
100
AcDbLine
 10
60.55000000000002
 20
0.0
 30
98.80000000000001
 11
0.0
 21
0.0
 31
98.80000000000001
  0
LINE
  5
1C5
330
7F
100
AcDbEntity
  8
0
 62
     0
100
AcDbLine
 10
60.55000000000002
 20
0.3999999999999993
 30
98.80000000000001
 11
60.55000000000002
 21
0.0
 31
98.80000000000001
  0
LINE
  5
1C6
330
7F
100
AcDbEntity
  8
0
 62
     0
100
AcDbLine
 10
0.0
 20
0.3999999999999993
 30
98.80000000000001
 11
60.55000000000002
 21
0.3999999999999993
 31
98.80000000000001
  0
LINE
  5
1C7
330
7F
100
AcDbEntity
  8
0
 62
     0
100
AcDbLine
 10
0.0
 20
0.0
 30
98.80000000000001
 11
0.0
 21
0.3999999999999993
 31
98.80000000000001
  0
POLYLINE
  5
1C8
330
7F
100
AcDbEntity
  8
0
 62
     7
100
AcDbPolyFaceMesh
 66
     1
 10
0.0
 20
0.0
 30
0.0
 70
    64
 71
     4
 72
     2
1001
ACAD_MATERIAL_MAPPER
1070
     1
1070
     1
1070
     1
1011
0.0
1021
0.0
1031
0.0
1011
-2.54
1021
0.0
1031
0.0
1011
0.0
1021
0.0
1031
2.54
1011
0.0
1021
1.0
1031
0.0
  0
VERTEX
  5
1C9
330
1C8
100
AcDbEntity
  8
0
 62
     7
100
AcDbVertex
100
AcDbPolyFaceMeshVertex
 10
0.0
 20
0.3999999999999993
 30
98.80000000000001
 70
   192
  0
VERTEX
  5
1CA
330
1C8
100
AcDbEntity
  8
0
 62
     7
100
AcDbVertex
100
AcDbPolyFaceMeshVertex
 10
60.55000000000002
 20
0.3999999999999993
 30
0.0
 70
   192
  0
VERTEX
  5
1CB
330
1C8
100
AcDbEntity
  8
0
 62
     7
100
AcDbVertex
100
AcDbPolyFaceMeshVertex
 10
0.0
 20
0.3999999999999993
 30
0.0
 70
   192
  0
VERTEX
  5
1CC
330
1C8
100
AcDbEntity
  8
0
 62
     7
100
AcDbVertex
100
AcDbPolyFaceMeshVertex
 10
60.55000000000002
 20
0.3999999999999993
 30
98.80000000000001
 70
   192
  0
VERTEX
  5
1CD
330
1C8
100
AcDbEntity
  8
0
 62
     7
100
AcDbFaceRecord
 10
0.0
 20
0.0
 30
0.0
 70
   128
 71
    -1
 72
     2
 73
     3
  0
VERTEX
  5
1CE
330
1C8
100
AcDbEntity
  8
0
 62
     7
100
AcDbFaceRecord
 10
0.0
 20
0.0
 30
0.0
 70
   128
 71
    -2
 72
     1
 73
     4
  0
SEQEND
  5
1CF
330
1C8
100
AcDbEntity
  8
0
 62
     7
  0
LINE
  5
1D0
330
7F
100
AcDbEntity
  8
0
 62
     0
100
AcDbLine
 10
0.0
 20
0.3999999999999993
 30
0.0
 11
60.55000000000002
 21
0.3999999999999993
 31
0.0
  0
LINE
  5
1D1
330
7F
100
AcDbEntity
  8
0
 62
     0
100
AcDbLine
 10
0.0
 20
0.3999999999999993
 30
0.0
 11
0.0
 21
0.3999999999999993
 31
98.80000000000001
  0
LINE
  5
1D2
330
7F
100
AcDbEntity
  8
0
 62
     0
100
AcDbLine
 10
0.0
 20
0.3999999999999993
 30
98.80000000000001
 11
60.55000000000002
 21
0.3999999999999993
 31
98.80000000000001
  0
LINE
  5
1D3
330
7F
100
AcDbEntity
  8
0
 62
     0
100
AcDbLine
 10
60.55000000000002
 20
0.3999999999999993
 30
0.0
 11
60.55000000000002
 21
0.3999999999999993
 31
98.80000000000001
  0
POLYLINE
  5
1D4
330
7F
100
AcDbEntity
  8
0
 62
     7
100
AcDbPolyFaceMesh
 66
     1
 10
0.0
 20
0.0
 30
0.0
 70
    64
 71
     4
 72
     2
1001
ACAD_MATERIAL_MAPPER
1070
     1
1070
     1
1070
     1
1011
0.0
1021
0.0
1031
0.0
1011
2.54
1021
0.0
1031
0.0
1011
0.0
1021
0.0
1031
2.54
1011
0.0
1021
1.0
1031
0.0
  0
VERTEX
  5
1D5
330
1D4
100
AcDbEntity
  8
0
 62
     7
100
AcDbVertex
100
AcDbPolyFaceMeshVertex
 10
60.55000000000002
 20
0.0
 30
98.80000000000001
 70
   192
  0
VERTEX
  5
1D6
330
1D4
100
AcDbEntity
  8
0
 62
     7
100
AcDbVertex
100
AcDbPolyFaceMeshVertex
 10
0.0
 20
0.0
 30
0.0
 70
   192
  0
VERTEX
  5
1D7
330
1D4
100
AcDbEntity
  8
0
 62
     7
100
AcDbVertex
100
AcDbPolyFaceMeshVertex
 10
60.55000000000002
 20
0.0
 30
0.0
 70
   192
  0
VERTEX
  5
1D8
330
1D4
100
AcDbEntity
  8
0
 62
     7
100
AcDbVertex
100
AcDbPolyFaceMeshVertex
 10
0.0
 20
0.0
 30
98.80000000000001
 70
   192
  0
VERTEX
  5
1D9
330
1D4
100
AcDbEntity
  8
0
 62
     7
100
AcDbFaceRecord
 10
0.0
 20
0.0
 30
0.0
 70
   128
 71
    -1
 72
     2
 73
     3
  0
VERTEX
  5
1DA
330
1D4
100
AcDbEntity
  8
0
 62
     7
100
AcDbFaceRecord
 10
0.0
 20
0.0
 30
0.0
 70
   128
 71
    -2
 72
     1
 73
     4
  0
SEQEND
  5
1DB
330
1D4
100
AcDbEntity
  8
0
 62
     7
  0
LINE
  5
1DC
330
7F
100
AcDbEntity
  8
0
 62
     0
100
AcDbLine
 10
60.55000000000002
 20
0.0
 30
0.0
 11
0.0
 21
0.0
 31
0.0
  0
LINE
  5
1DD
330
7F
100
AcDbEntity
  8
0
 62
     0
100
AcDbLine
 10
60.55000000000002
 20
0.0
 30
0.0
 11
60.55000000000002
 21
0.0
 31
98.80000000000001
  0
LINE
  5
1DE
330
7F
100
AcDbEntity
  8
0
 62
     0
100
AcDbLine
 10
60.55000000000002
 20
0.0
 30
98.80000000000001
 11
0.0
 21
0.0
 31
98.80000000000001
  0
LINE
  5
1DF
330
7F
100
AcDbEntity
  8
0
 62
     0
100
AcDbLine
 10
0.0
 20
0.0
 30
0.0
 11
0.0
 21
0.0
 31
98.80000000000001
  0
POLYLINE
  5
1E0
330
7F
100
AcDbEntity
  8
0
 62
     7
100
AcDbPolyFaceMesh
 66
     1
 10
0.0
 20
0.0
 30
0.0
 70
    64
 71
     4
 72
     2
1001
ACAD_MATERIAL_MAPPER
1070
     1
1070
     1
1070
     1
1011
0.0
1021
0.0
1031
0.0
1011
-2.54
1021
0.0
1031
0.0
1011
0.0
1021
2.54
1031
0.0
1011
0.0
1021
0.0
1031
1.0
  0
VERTEX
  5
1E1
330
1E0
100
AcDbEntity
  8
0
 62
     7
100
AcDbVertex
100
AcDbPolyFaceMeshVertex
 10
60.55000000000002
 20
0.3999999999999993
 30
0.0
 70
   192
  0
VERTEX
  5
1E2
330
1E0
100
AcDbEntity
  8
0
 62
     7
100
AcDbVertex
100
AcDbPolyFaceMeshVertex
 10
0.0
 20
0.0
 30
0.0
 70
   192
  0
VERTEX
  5
1E3
330
1E0
100
AcDbEntity
  8
0
 62
     7
100
AcDbVertex
100
AcDbPolyFaceMeshVertex
 10
0.0
 20
0.3999999999999993
 30
0.0
 70
   192
  0
VERTEX
  5
1E4
330
1E0
100
AcDbEntity
  8
0
 62
     7
100
AcDbVertex
100
AcDbPolyFaceMeshVertex
 10
60.55000000000002
 20
0.0
 30
0.0
 70
   192
  0
VERTEX
  5
1E5
330
1E0
100
AcDbEntity
  8
0
 62
     7
100
AcDbFaceRecord
 10
0.0
 20
0.0
 30
0.0
 70
   128
 71
    -1
 72
     2
 73
     3
  0
VERTEX
  5
1E6
330
1E0
100
AcDbEntity
  8
0
 62
     7
100
AcDbFaceRecord
 10
0.0
 20
0.0
 30
0.0
 70
   128
 71
    -2
 72
     1
 73
     4
  0
SEQEND
  5
1E7
330
1E0
100
AcDbEntity
  8
0
 62
     7
  0
LINE
  5
1E8
330
7F
100
AcDbEntity
  8
0
 62
     0
100
AcDbLine
 10
60.55000000000002
 20
0.0
 30
0.0
 11
0.0
 21
0.0
 31
0.0
  0
LINE
  5
1E9
330
7F
100
AcDbEntity
  8
0
 62
     0
100
AcDbLine
 10
0.0
 20
0.0
 30
0.0
 11
0.0
 21
0.3999999999999993
 31
0.0
  0
LINE
  5
1EA
330
7F
100
AcDbEntity
  8
0
 62
     0
100
AcDbLine
 10
0.0
 20
0.3999999999999993
 30
0.0
 11
60.55000000000002
 21
0.3999999999999993
 31
0.0
  0
LINE
  5
1EB
330
7F
100
AcDbEntity
  8
0
 62
     0
100
AcDbLine
 10
60.55000000000002
 20
0.3999999999999993
 30
0.0
 11
60.55000000000002
 21
0.0
 31
0.0
  0
ENDBLK
  5
81
330
7F
100
AcDbEntity
  8
0
100
AcDbBlockEnd
  0
BLOCK
  5
83
330
82
100
AcDbEntity
  8
0
100
AcDbBlockBegin
  2
GRUPO_2
 70
     0
 10
0.0
 20
0.0
 30
0.0
  3
GRUPO_2
  1

  0
POLYLINE
  5
1EC
330
82
100
AcDbEntity
  8
0
 62
     7
100
AcDbPolyFaceMesh
 66
     1
 10
0.0
 20
0.0
 30
0.0
 70
    64
 71
     4
 72
     2
1001
ACAD_MATERIAL_MAPPER
1070
     1
1070
     1
1070
     1
1011
0.0
1021
0.0
1031
0.0
1011
0.0
1021
-2.54
1031
0.0
1011
0.0
1021
0.0
1031
2.54
1011
1.0
1021
0.0
1031
0.0
  0
VERTEX
  5
1ED
330
1EC
100
AcDbEntity
  8
0
 62
     7
100
AcDbVertex
100
AcDbPolyFaceMeshVertex
 10
-0.2500000000000154
 20
0.3999999999999993
 30
98.80000000000001
 70
   192
  0
VERTEX
  5
1EE
330
1EC
100
AcDbEntity
  8
0
 62
     7
100
AcDbVertex
100
AcDbPolyFaceMeshVertex
 10
-0.2500000000000154
 20
0.0
 30
0.0
 70
   192
  0
VERTEX
  5
1EF
330
1EC
100
AcDbEntity
  8
0
 62
     7
100
AcDbVertex
100
AcDbPolyFaceMeshVertex
 10
-0.2500000000000154
 20
0.0
 30
98.80000000000001
 70
   192
  0
VERTEX
  5
1F0
330
1EC
100
AcDbEntity
  8
0
 62
     7
100
AcDbVertex
100
AcDbPolyFaceMeshVertex
 10
-0.2500000000000154
 20
0.3999999999999993
 30
0.0
 70
   192
  0
VERTEX
  5
1F1
330
1EC
100
AcDbEntity
  8
0
 62
     7
100
AcDbFaceRecord
 10
0.0
 20
0.0
 30
0.0
 70
   128
 71
    -1
 72
     2
 73
     3
  0
VERTEX
  5
1F2
330
1EC
100
AcDbEntity
  8
0
 62
     7
100
AcDbFaceRecord
 10
0.0
 20
0.0
 30
0.0
 70
   128
 71
    -2
 72
     1
 73
     4
  0
SEQEND
  5
1F3
330
1EC
100
AcDbEntity
  8
0
 62
     7
  0
LINE
  5
1F4
330
82
100
AcDbEntity
  8
0
 62
     0
100
AcDbLine
 10
-0.2500000000000154
 20
0.0
 30
0.0
 11
-0.2500000000000154
 21
0.3999999999999993
 31
0.0
  0
LINE
  5
1F5
330
82
100
AcDbEntity
  8
0
 62
     0
100
AcDbLine
 10
-0.2500000000000154
 20
0.0
 30
0.0
 11
-0.2500000000000154
 21
0.0
 31
98.80000000000001
  0
LINE
  5
1F6
330
82
100
AcDbEntity
  8
0
 62
     0
100
AcDbLine
 10
-0.2500000000000154
 20
0.0
 30
98.80000000000001
 11
-0.2500000000000154
 21
0.3999999999999993
 31
98.80000000000001
  0
LINE
  5
1F7
330
82
100
AcDbEntity
  8
0
 62
     0
100
AcDbLine
 10
-0.2500000000000154
 20
0.3999999999999993
 30
0.0
 11
-0.2500000000000154
 21
0.3999999999999993
 31
98.80000000000001
  0
POLYLINE
  5
1F8
330
82
100
AcDbEntity
  8
0
 62
     7
100
AcDbPolyFaceMesh
 66
     1
 10
0.0
 20
0.0
 30
0.0
 70
    64
 71
     4
 72
     2
1001
ACAD_MATERIAL_MAPPER
1070
     1
1070
     1
1070
     1
1011
0.0
1021
0.0
1031
0.0
1011
0.0
1021
2.54
1031
0.0
1011
0.0
1021
0.0
1031
2.54
1011
1.0
1021
0.0
1031
0.0
  0
VERTEX
  5
1F9
330
1F8
100
AcDbEntity
  8
0
 62
     7
100
AcDbVertex
100
AcDbPolyFaceMeshVertex
 10
60.3
 20
0.3999999999999993
 30
0.0
 70
   192
  0
VERTEX
  5
1FA
330
1F8
100
AcDbEntity
  8
0
 62
     7
100
AcDbVertex
100
AcDbPolyFaceMeshVertex
 10
60.3
 20
0.0
 30
98.80000000000001
 70
   192
  0
VERTEX
  5
1FB
330
1F8
100
AcDbEntity
  8
0
 62
     7
100
AcDbVertex
100
AcDbPolyFaceMeshVertex
 10
60.3
 20
0.0
 30
0.0
 70
   192
  0
VERTEX
  5
1FC
330
1F8
100
AcDbEntity
  8
0
 62
     7
100
AcDbVertex
100
AcDbPolyFaceMeshVertex
 10
60.3
 20
0.3999999999999993
 30
98.80000000000001
 70
   192
  0
VERTEX
  5
1FD
330
1F8
100
AcDbEntity
  8
0
 62
     7
100
AcDbFaceRecord
 10
0.0
 20
0.0
 30
0.0
 70
   128
 71
    -1
 72
     2
 73
     3
  0
VERTEX
  5
1FE
330
1F8
100
AcDbEntity
  8
0
 62
     7
100
AcDbFaceRecord
 10
0.0
 20
0.0
 30
0.0
 70
   128
 71
    -2
 72
     1
 73
     4
  0
SEQEND
  5
1FF
330
1F8
100
AcDbEntity
  8
0
 62
     7
  0
LINE
  5
200
330
82
100
AcDbEntity
  8
0
 62
     0
100
AcDbLine
 10
60.3
 20
0.3999999999999993
 30
0.0
 11
60.3
 21
0.0
 31
0.0
  0
LINE
  5
201
330
82
100
AcDbEntity
  8
0
 62
     0
100
AcDbLine
 10
60.3
 20
0.3999999999999993
 30
0.0
 11
60.3
 21
0.3999999999999993
 31
98.80000000000001
  0
LINE
  5
202
330
82
100
AcDbEntity
  8
0
 62
     0
100
AcDbLine
 10
60.3
 20
0.3999999999999993
 30
98.80000000000001
 11
60.3
 21
0.0
 31
98.80000000000001
  0
LINE
  5
203
330
82
100
AcDbEntity
  8
0
 62
     0
100
AcDbLine
 10
60.3
 20
0.0
 30
0.0
 11
60.3
 21
0.0
 31
98.80000000000001
  0
POLYLINE
  5
204
330
82
100
AcDbEntity
  8
0
 62
     7
100
AcDbPolyFaceMesh
 66
     1
 10
0.0
 20
0.0
 30
0.0
 70
    64
 71
     4
 72
     2
1001
ACAD_MATERIAL_MAPPER
1070
     1
1070
     1
1070
     1
1011
0.0
1021
0.0
1031
0.0
1011
2.54
1021
0.0
1031
0.0
1011
0.0
1021
2.54
1031
0.0
1011
0.0
1021
0.0
1031
1.0
  0
VERTEX
  5
205
330
204
100
AcDbEntity
  8
0
 62
     7
100
AcDbVertex
100
AcDbPolyFaceMeshVertex
 10
60.3
 20
0.0
 30
98.80000000000001
 70
   192
  0
VERTEX
  5
206
330
204
100
AcDbEntity
  8
0
 62
     7
100
AcDbVertex
100
AcDbPolyFaceMeshVertex
 10
-0.2500000000000154
 20
0.3999999999999993
 30
98.80000000000001
 70
   192
  0
VERTEX
  5
207
330
204
100
AcDbEntity
  8
0
 62
     7
100
AcDbVertex
100
AcDbPolyFaceMeshVertex
 10
-0.2500000000000154
 20
0.0
 30
98.80000000000001
 70
   192
  0
VERTEX
  5
208
330
204
100
AcDbEntity
  8
0
 62
     7
100
AcDbVertex
100
AcDbPolyFaceMeshVertex
 10
60.3
 20
0.3999999999999993
 30
98.80000000000001
 70
   192
  0
VERTEX
  5
209
330
204
100
AcDbEntity
  8
0
 62
     7
100
AcDbFaceRecord
 10
0.0
 20
0.0
 30
0.0
 70
   128
 71
    -1
 72
     2
 73
     3
  0
VERTEX
  5
20A
330
204
100
AcDbEntity
  8
0
 62
     7
100
AcDbFaceRecord
 10
0.0
 20
0.0
 30
0.0
 70
   128
 71
    -2
 72
     1
 73
     4
  0
SEQEND
  5
20B
330
204
100
AcDbEntity
  8
0
 62
     7
  0
LINE
  5
20C
330
82
100
AcDbEntity
  8
0
 62
     0
100
AcDbLine
 10
60.3
 20
0.0
 30
98.80000000000001
 11
-0.2500000000000154
 21
0.0
 31
98.80000000000001
  0
LINE
  5
20D
330
82
100
AcDbEntity
  8
0
 62
     0
100
AcDbLine
 10
60.3
 20
0.3999999999999993
 30
98.80000000000001
 11
60.3
 21
0.0
 31
98.80000000000001
  0
LINE
  5
20E
330
82
100
AcDbEntity
  8
0
 62
     0
100
AcDbLine
 10
-0.2500000000000154
 20
0.3999999999999993
 30
98.80000000000001
 11
60.3
 21
0.3999999999999993
 31
98.80000000000001
  0
LINE
  5
20F
330
82
100
AcDbEntity
  8
0
 62
     0
100
AcDbLine
 10
-0.2500000000000154
 20
0.0
 30
98.80000000000001
 11
-0.2500000000000154
 21
0.3999999999999993
 31
98.80000000000001
  0
POLYLINE
  5
210
330
82
100
AcDbEntity
  8
0
 62
     7
100
AcDbPolyFaceMesh
 66
     1
 10
0.0
 20
0.0
 30
0.0
 70
    64
 71
     4
 72
     2
1001
ACAD_MATERIAL_MAPPER
1070
     1
1070
     1
1070
     1
1011
-0.0000000000000001
1021
0.0
1031
0.0
1011
-2.54
1021
0.0
1031
0.0
1011
-0.0000000000000001
1021
0.0
1031
2.54
1011
-0.0000000000000001
1021
1.0
1031
0.0
  0
VERTEX
  5
211
330
210
100
AcDbEntity
  8
0
 62
     7
100
AcDbVertex
100
AcDbPolyFaceMeshVertex
 10
-0.2500000000000154
 20
0.3999999999999993
 30
98.80000000000001
 70
   192
  0
VERTEX
  5
212
330
210
100
AcDbEntity
  8
0
 62
     7
100
AcDbVertex
100
AcDbPolyFaceMeshVertex
 10
60.3
 20
0.3999999999999993
 30
0.0
 70
   192
  0
VERTEX
  5
213
330
210
100
AcDbEntity
  8
0
 62
     7
100
AcDbVertex
100
AcDbPolyFaceMeshVertex
 10
-0.2500000000000154
 20
0.3999999999999993
 30
0.0
 70
   192
  0
VERTEX
  5
214
330
210
100
AcDbEntity
  8
0
 62
     7
100
AcDbVertex
100
AcDbPolyFaceMeshVertex
 10
60.3
 20
0.3999999999999993
 30
98.80000000000001
 70
   192
  0
VERTEX
  5
215
330
210
100
AcDbEntity
  8
0
 62
     7
100
AcDbFaceRecord
 10
0.0
 20
0.0
 30
0.0
 70
   128
 71
    -1
 72
     2
 73
     3
  0
VERTEX
  5
216
330
210
100
AcDbEntity
  8
0
 62
     7
100
AcDbFaceRecord
 10
0.0
 20
0.0
 30
0.0
 70
   128
 71
    -2
 72
     1
 73
     4
  0
SEQEND
  5
217
330
210
100
AcDbEntity
  8
0
 62
     7
  0
LINE
  5
218
330
82
100
AcDbEntity
  8
0
 62
     0
100
AcDbLine
 10
-0.2500000000000154
 20
0.3999999999999993
 30
0.0
 11
60.3
 21
0.3999999999999993
 31
0.0
  0
LINE
  5
219
330
82
100
AcDbEntity
  8
0
 62
     0
100
AcDbLine
 10
-0.2500000000000154
 20
0.3999999999999993
 30
0.0
 11
-0.2500000000000154
 21
0.3999999999999993
 31
98.80000000000001
  0
LINE
  5
21A
330
82
100
AcDbEntity
  8
0
 62
     0
100
AcDbLine
 10
-0.2500000000000154
 20
0.3999999999999993
 30
98.80000000000001
 11
60.3
 21
0.3999999999999993
 31
98.80000000000001
  0
LINE
  5
21B
330
82
100
AcDbEntity
  8
0
 62
     0
100
AcDbLine
 10
60.3
 20
0.3999999999999993
 30
0.0
 11
60.3
 21
0.3999999999999993
 31
98.80000000000001
  0
POLYLINE
  5
21C
330
82
100
AcDbEntity
  8
0
 62
     7
100
AcDbPolyFaceMesh
 66
     1
 10
0.0
 20
0.0
 30
0.0
 70
    64
 71
     4
 72
     2
1001
ACAD_MATERIAL_MAPPER
1070
     1
1070
     1
1070
     1
1011
-0.0000000000000001
1021
0.0
1031
0.0
1011
2.54
1021
0.0
1031
0.0
1011
-0.0000000000000001
1021
0.0
1031
2.54
1011
-0.0000000000000001
1021
1.0
1031
0.0
  0
VERTEX
  5
21D
330
21C
100
AcDbEntity
  8
0
 62
     7
100
AcDbVertex
100
AcDbPolyFaceMeshVertex
 10
60.3
 20
0.0
 30
98.80000000000001
 70
   192
  0
VERTEX
  5
21E
330
21C
100
AcDbEntity
  8
0
 62
     7
100
AcDbVertex
100
AcDbPolyFaceMeshVertex
 10
-0.2500000000000154
 20
0.0
 30
0.0
 70
   192
  0
VERTEX
  5
21F
330
21C
100
AcDbEntity
  8
0
 62
     7
100
AcDbVertex
100
AcDbPolyFaceMeshVertex
 10
60.3
 20
0.0
 30
0.0
 70
   192
  0
VERTEX
  5
220
330
21C
100
AcDbEntity
  8
0
 62
     7
100
AcDbVertex
100
AcDbPolyFaceMeshVertex
 10
-0.2500000000000154
 20
0.0
 30
98.80000000000001
 70
   192
  0
VERTEX
  5
221
330
21C
100
AcDbEntity
  8
0
 62
     7
100
AcDbFaceRecord
 10
0.0
 20
0.0
 30
0.0
 70
   128
 71
    -1
 72
     2
 73
     3
  0
VERTEX
  5
222
330
21C
100
AcDbEntity
  8
0
 62
     7
100
AcDbFaceRecord
 10
0.0
 20
0.0
 30
0.0
 70
   128
 71
    -2
 72
     1
 73
     4
  0
SEQEND
  5
223
330
21C
100
AcDbEntity
  8
0
 62
     7
  0
LINE
  5
224
330
82
100
AcDbEntity
  8
0
 62
     0
100
AcDbLine
 10
60.3
 20
0.0
 30
0.0
 11
-0.2500000000000154
 21
0.0
 31
0.0
  0
LINE
  5
225
330
82
100
AcDbEntity
  8
0
 62
     0
100
AcDbLine
 10
60.3
 20
0.0
 30
0.0
 11
60.3
 21
0.0
 31
98.80000000000001
  0
LINE
  5
226
330
82
100
AcDbEntity
  8
0
 62
     0
100
AcDbLine
 10
60.3
 20
0.0
 30
98.80000000000001
 11
-0.2500000000000154
 21
0.0
 31
98.80000000000001
  0
LINE
  5
227
330
82
100
AcDbEntity
  8
0
 62
     0
100
AcDbLine
 10
-0.2500000000000154
 20
0.0
 30
0.0
 11
-0.2500000000000154
 21
0.0
 31
98.80000000000001
  0
POLYLINE
  5
228
330
82
100
AcDbEntity
  8
0
 62
     7
100
AcDbPolyFaceMesh
 66
     1
 10
0.0
 20
0.0
 30
0.0
 70
    64
 71
     4
 72
     2
1001
ACAD_MATERIAL_MAPPER
1070
     1
1070
     1
1070
     1
1011
0.0
1021
0.0
1031
0.0
1011
-2.54
1021
0.0
1031
0.0
1011
0.0
1021
2.54
1031
0.0
1011
0.0
1021
0.0
1031
1.0
  0
VERTEX
  5
229
330
228
100
AcDbEntity
  8
0
 62
     7
100
AcDbVertex
100
AcDbPolyFaceMeshVertex
 10
60.3
 20
0.3999999999999993
 30
0.0
 70
   192
  0
VERTEX
  5
22A
330
228
100
AcDbEntity
  8
0
 62
     7
100
AcDbVertex
100
AcDbPolyFaceMeshVertex
 10
-0.2500000000000154
 20
0.0
 30
0.0
 70
   192
  0
VERTEX
  5
22B
330
228
100
AcDbEntity
  8
0
 62
     7
100
AcDbVertex
100
AcDbPolyFaceMeshVertex
 10
-0.2500000000000154
 20
0.3999999999999993
 30
0.0
 70
   192
  0
VERTEX
  5
22C
330
228
100
AcDbEntity
  8
0
 62
     7
100
AcDbVertex
100
AcDbPolyFaceMeshVertex
 10
60.3
 20
0.0
 30
0.0
 70
   192
  0
VERTEX
  5
22D
330
228
100
AcDbEntity
  8
0
 62
     7
100
AcDbFaceRecord
 10
0.0
 20
0.0
 30
0.0
 70
   128
 71
    -1
 72
     2
 73
     3
  0
VERTEX
  5
22E
330
228
100
AcDbEntity
  8
0
 62
     7
100
AcDbFaceRecord
 10
0.0
 20
0.0
 30
0.0
 70
   128
 71
    -2
 72
     1
 73
     4
  0
SEQEND
  5
22F
330
228
100
AcDbEntity
  8
0
 62
     7
  0
LINE
  5
230
330
82
100
AcDbEntity
  8
0
 62
     0
100
AcDbLine
 10
60.3
 20
0.0
 30
0.0
 11
-0.2500000000000154
 21
0.0
 31
0.0
  0
LINE
  5
231
330
82
100
AcDbEntity
  8
0
 62
     0
100
AcDbLine
 10
-0.2500000000000154
 20
0.0
 30
0.0
 11
-0.2500000000000154
 21
0.3999999999999993
 31
0.0
  0
LINE
  5
232
330
82
100
AcDbEntity
  8
0
 62
     0
100
AcDbLine
 10
-0.2500000000000154
 20
0.3999999999999993
 30
0.0
 11
60.3
 21
0.3999999999999993
 31
0.0
  0
LINE
  5
233
330
82
100
AcDbEntity
  8
0
 62
     0
100
AcDbLine
 10
60.3
 20
0.3999999999999993
 30
0.0
 11
60.3
 21
0.0
 31
0.0
  0
ENDBLK
  5
84
330
82
100
AcDbEntity
  8
0
100
AcDbBlockEnd
  0
ENDSEC
  0
SECTION
  2
ENTITIES
  0
POLYLINE
  5
235
330
1F
100
AcDbEntity
  8
0
 62
    33
100
AcDbPolyFaceMesh
 66
     1
 10
0.0
 20
0.0
 30
0.0
 70
    64
 71
     4
 72
     2
1001
ACAD_MATERIAL_MAPPER
1070
     1
1070
     1
1070
     1
1011
0.0
1021
0.0
1031
0.0
1011
0.0
1021
-240.0
1031
0.0
1011
0.0
1021
0.0
1031
240.0
1011
1.0
1021
0.0
1031
0.0
  0
VERTEX
  5
236
330
235
100
AcDbEntity
  8
0
 62
    33
100
AcDbVertex
100
AcDbPolyFaceMeshVertex
 10
-0.0000000000000045
 20
9.500000000000366
 30
110.0
 70
   192
  0
VERTEX
  5
237
330
235
100
AcDbEntity
  8
0
 62
    33
100
AcDbVertex
100
AcDbPolyFaceMeshVertex
 10
-0.0000000000000045
 20
0.000000000000361
 30
0.0000000000000001
 70
   192
  0
VERTEX
  5
238
330
235
100
AcDbEntity
  8
0
 62
    33
100
AcDbVertex
100
AcDbPolyFaceMeshVertex
 10
-0.0000000000000045
 20
0.000000000000361
 30
110.0
 70
   192
  0
VERTEX
  5
239
330
235
100
AcDbEntity
  8
0
 62
    33
100
AcDbVertex
100
AcDbPolyFaceMeshVertex
 10
-0.0000000000000045
 20
9.500000000000366
 30
0.0000000000000001
 70
   192
  0
VERTEX
  5
23A
330
235
100
AcDbEntity
  8
0
 62
    33
100
AcDbFaceRecord
 10
0.0
 20
0.0
 30
0.0
 70
   128
 71
    -1
 72
     2
 73
     3
  0
VERTEX
  5
23B
330
235
100
AcDbEntity
  8
0
 62
    33
100
AcDbFaceRecord
 10
0.0
 20
0.0
 30
0.0
 70
   128
 71
    -2
 72
     1
 73
     4
  0
SEQEND
  5
23C
330
235
100
AcDbEntity
  8
0
 62
    33
  0
LINE
  5
23D
330
1F
100
AcDbEntity
  8
0
 62
     0
100
AcDbLine
 10
-0.0000000000000045
 20
0.000000000000361
 30
0.0000000000000001
 11
-0.0000000000000045
 21
9.500000000000366
 31
0.0000000000000001
  0
LINE
  5
23E
330
1F
100
AcDbEntity
  8
0
 62
     0
100
AcDbLine
 10
-0.0000000000000045
 20
0.000000000000361
 30
0.0000000000000001
 11
-0.0000000000000045
 21
0.000000000000361
 31
110.0
  0
LINE
  5
23F
330
1F
100
AcDbEntity
  8
0
 62
     0
100
AcDbLine
 10
-0.0000000000000045
 20
0.000000000000361
 30
110.0
 11
-0.0000000000000045
 21
9.500000000000366
 31
110.0
  0
LINE
  5
240
330
1F
100
AcDbEntity
  8
0
 62
     0
100
AcDbLine
 10
-0.0000000000000045
 20
9.500000000000366
 30
0.0000000000000001
 11
-0.0000000000000045
 21
9.500000000000366
 31
110.0
  0
POLYLINE
  5
241
330
1F
100
AcDbEntity
  8
0
 62
    33
100
AcDbPolyFaceMesh
 66
     1
 10
0.0
 20
0.0
 30
0.0
 70
    64
 71
     5
 72
     3
1001
ACAD_MATERIAL_MAPPER
1070
     1
1070
     1
1070
     1
1011
0.0
1021
0.0000000000003068
1031
0.0
1011
240.0
1021
0.0000000000003044
1031
0.0
1011
0.0000000000000189
1021
240.0000000000003
1031
0.0
1011
0.0
1021
0.0000000000003068
1031
1.0
  0
VERTEX
  5
242
330
241
100
AcDbEntity
  8
0
 62
    33
100
AcDbVertex
100
AcDbPolyFaceMeshVertex
 10
2.000000000000624
 20
4.50000000000006
 30
2.000000000000719
 70
   192
  0
VERTEX
  5
243
330
241
100
AcDbEntity
  8
0
 62
    33
100
AcDbVertex
100
AcDbPolyFaceMeshVertex
 10
137.5000000000006
 20
9.500000000000728
 30
1.999999999999906
 70
   192
  0
VERTEX
  5
244
330
241
100
AcDbEntity
  8
0
 62
    33
100
AcDbVertex
100
AcDbPolyFaceMeshVertex
 10
1.999999999999902
 20
9.500000000000366
 30
1.999999999999996
 70
   192
  0
VERTEX
  5
245
330
241
100
AcDbEntity
  8
0
 62
    33
100
AcDbVertex
100
AcDbPolyFaceMeshVertex
 10
69.75000000000084
 20
4.50000000000006
 30
2.000000000000719
 70
   192
  0
VERTEX
  5
246
330
241
100
AcDbEntity
  8
0
 62
    33
100
AcDbVertex
100
AcDbPolyFaceMeshVertex
 10
137.5000000000011
 20
4.50000000000006
 30
2.000000000000719
 70
   192
  0
VERTEX
  5
247
330
241
100
AcDbEntity
  8
0
 62
    33
100
AcDbFaceRecord
 10
0.0
 20
0.0
 30
0.0
 70
   128
 71
    -1
 72
     2
 73
     3
  0
VERTEX
  5
248
330
241
100
AcDbEntity
  8
0
 62
    33
100
AcDbFaceRecord
 10
0.0
 20
0.0
 30
0.0
 70
   128
 71
    -2
 72
     1
 73
    -4
  0
VERTEX
  5
249
330
241
100
AcDbEntity
  8
0
 62
    33
100
AcDbFaceRecord
 10
0.0
 20
0.0
 30
0.0
 70
   128
 71
    -2
 72
     4
 73
     5
  0
SEQEND
  5
24A
330
241
100
AcDbEntity
  8
0
 62
    33
  0
LINE
  5
24B
330
1F
100
AcDbEntity
  8
0
 62
     0
100
AcDbLine
 10
137.5000000000006
 20
9.500000000000728
 30
1.999999999999906
 11
137.5000000000011
 21
4.50000000000006
 31
2.000000000000719
  0
LINE
  5
24C
330
1F
100
AcDbEntity
  8
0
 62
     0
100
AcDbLine
 10
137.5000000000006
 20
9.500000000000728
 30
1.999999999999906
 11
1.999999999999902
 21
9.500000000000366
 31
1.999999999999996
  0
LINE
  5
24D
330
1F
100
AcDbEntity
  8
0
 62
     0
100
AcDbLine
 10
1.999999999999902
 20
9.500000000000366
 30
1.999999999999996
 11
2.000000000000624
 21
4.50000000000006
 31
2.000000000000719
  0
LINE
  5
24E
330
1F
100
AcDbEntity
  8
0
 62
     0
100
AcDbLine
 10
2.000000000000624
 20
4.50000000000006
 30
2.000000000000719
 11
69.75000000000084
 21
4.50000000000006
 31
2.000000000000719
  0
LINE
  5
24F
330
1F
100
AcDbEntity
  8
0
 62
     0
100
AcDbLine
 10
69.75000000000084
 20
4.50000000000006
 30
2.000000000000719
 11
137.5000000000011
 21
4.50000000000006
 31
2.000000000000719
  0
POLYLINE
  5
250
330
1F
100
AcDbEntity
  8
0
 62
    33
100
AcDbPolyFaceMesh
 66
     1
 10
0.0
 20
0.0
 30
0.0
 70
    64
 71
     4
 72
     2
1001
ACAD_MATERIAL_MAPPER
1070
     1
1070
     1
1070
     1
1011
0.0
1021
0.0000000000002881
1031
-0.0000000000000015
1011
0.0
1021
240.0000000000003
1031
0.0000000000000106
1011
0.0
1021
0.0000000000002881
1031
240.0
1011
1.0
1021
0.0000000000002881
1031
-0.0000000000000015
  0
VERTEX
  5
251
330
250
100
AcDbEntity
  8
0
 62
    33
100
AcDbVertex
100
AcDbPolyFaceMeshVertex
 10
1.999999999999902
 20
9.500000000000366
 30
1.999999999999996
 70
   192
  0
VERTEX
  5
252
330
250
100
AcDbEntity
  8
0
 62
    33
100
AcDbVertex
100
AcDbPolyFaceMeshVertex
 10
2.000000000000624
 20
4.50000000000006
 30
108.0000000000007
 70
   192
  0
VERTEX
  5
253
330
250
100
AcDbEntity
  8
0
 62
    33
100
AcDbVertex
100
AcDbPolyFaceMeshVertex
 10
2.000000000000624
 20
4.50000000000006
 30
2.000000000000719
 70
   192
  0
VERTEX
  5
254
330
250
100
AcDbEntity
  8
0
 62
    33
100
AcDbVertex
100
AcDbPolyFaceMeshVertex
 10
1.999999999999902
 20
9.500000000000728
 30
107.9999999999995
 70
   192
  0
VERTEX
  5
255
330
250
100
AcDbEntity
  8
0
 62
    33
100
AcDbFaceRecord
 10
0.0
 20
0.0
 30
0.0
 70
   128
 71
    -1
 72
     2
 73
     3
  0
VERTEX
  5
256
330
250
100
AcDbEntity
  8
0
 62
    33
100
AcDbFaceRecord
 10
0.0
 20
0.0
 30
0.0
 70
   128
 71
    -2
 72
     1
 73
     4
  0
SEQEND
  5
257
330
250
100
AcDbEntity
  8
0
 62
    33
  0
LINE
  5
258
330
1F
100
AcDbEntity
  8
0
 62
     0
100
AcDbLine
 10
1.999999999999902
 20
9.500000000000366
 30
1.999999999999996
 11
1.999999999999902
 21
9.500000000000728
 31
107.9999999999995
  0
LINE
  5
259
330
1F
100
AcDbEntity
  8
0
 62
     0
100
AcDbLine
 10
2.000000000000624
 20
4.50000000000006
 30
108.0000000000007
 11
1.999999999999902
 21
9.500000000000728
 31
107.9999999999995
  0
LINE
  5
25A
330
1F
100
AcDbEntity
  8
0
 62
     0
100
AcDbLine
 10
2.000000000000624
 20
4.50000000000006
 30
2.000000000000719
 11
2.000000000000624
 21
4.50000000000006
 31
108.0000000000007
  0
LINE
  5
25B
330
1F
100
AcDbEntity
  8
0
 62
     0
100
AcDbLine
 10
1.999999999999902
 20
9.500000000000366
 30
1.999999999999996
 11
2.000000000000624
 21
4.50000000000006
 31
2.000000000000719
  0
POLYLINE
  5
25C
330
1F
100
AcDbEntity
  8
0
 62
    33
100
AcDbPolyFaceMesh
 66
     1
 10
0.0
 20
0.0
 30
0.0
 70
    64
 71
     5
 72
     3
1001
ACAD_MATERIAL_MAPPER
1070
     1
1070
     1
1070
     1
1011
0.0000000000000363
1021
0.0000000000278732
1031
0.0
1011
-240.0
1021
0.0000000000278779
1031
0.0
1011
0.0000000000000552
1021
240.0000000000279
1031
0.0
1011
0.0000000000000363
1021
0.0000000000278732
1031
1.0
  0
VERTEX
  5
25D
330
25C
100
AcDbEntity
  8
0
 62
    33
100
AcDbVertex
100
AcDbPolyFaceMeshVertex
 10
137.5000000000006
 20
9.500000000000728
 30
107.9999999999994
 70
   192
  0
VERTEX
  5
25E
330
25C
100
AcDbEntity
  8
0
 62
    33
100
AcDbVertex
100
AcDbPolyFaceMeshVertex
 10
2.000000000000624
 20
4.50000000000006
 30
108.0000000000007
 70
   192
  0
VERTEX
  5
25F
330
25C
100
AcDbEntity
  8
0
 62
    33
100
AcDbVertex
100
AcDbPolyFaceMeshVertex
 10
1.999999999999902
 20
9.500000000000728
 30
107.9999999999995
 70
   192
  0
VERTEX
  5
260
330
25C
100
AcDbEntity
  8
0
 62
    33
100
AcDbVertex
100
AcDbPolyFaceMeshVertex
 10
69.75000000000084
 20
4.50000000000006
 30
108.0000000000007
 70
   192
  0
VERTEX
  5
261
330
25C
100
AcDbEntity
  8
0
 62
    33
100
AcDbVertex
100
AcDbPolyFaceMeshVertex
 10
137.5000000000011
 20
4.50000000000006
 30
108.0000000000007
 70
   192
  0
VERTEX
  5
262
330
25C
100
AcDbEntity
  8
0
 62
    33
100
AcDbFaceRecord
 10
0.0
 20
0.0
 30
0.0
 70
   128
 71
    -1
 72
     2
 73
     3
  0
VERTEX
  5
263
330
25C
100
AcDbEntity
  8
0
 62
    33
100
AcDbFaceRecord
 10
0.0
 20
0.0
 30
0.0
 70
   128
 71
    -2
 72
    -1
 73
     4
  0
VERTEX
  5
264
330
25C
100
AcDbEntity
  8
0
 62
    33
100
AcDbFaceRecord
 10
0.0
 20
0.0
 30
0.0
 70
   128
 71
    -4
 72
     1
 73
     5
  0
SEQEND
  5
265
330
25C
100
AcDbEntity
  8
0
 62
    33
  0
LINE
  5
266
330
1F
100
AcDbEntity
  8
0
 62
     0
100
AcDbLine
 10
137.5000000000011
 20
4.50000000000006
 30
108.0000000000007
 11
137.5000000000006
 21
9.500000000000728
 31
107.9999999999994
  0
LINE
  5
267
330
1F
100
AcDbEntity
  8
0
 62
     0
100
AcDbLine
 10
137.5000000000011
 20
4.50000000000006
 30
108.0000000000007
 11
69.75000000000084
 21
4.50000000000006
 31
108.0000000000007
  0
LINE
  5
268
330
1F
100
AcDbEntity
  8
0
 62
     0
100
AcDbLine
 10
69.75000000000084
 20
4.50000000000006
 30
108.0000000000007
 11
2.000000000000624
 21
4.50000000000006
 31
108.0000000000007
  0
LINE
  5
269
330
1F
100
AcDbEntity
  8
0
 62
     0
100
AcDbLine
 10
2.000000000000624
 20
4.50000000000006
 30
108.0000000000007
 11
1.999999999999902
 21
9.500000000000728
 31
107.9999999999995
  0
LINE
  5
26A
330
1F
100
AcDbEntity
  8
0
 62
     0
100
AcDbLine
 10
137.5000000000006
 20
9.500000000000728
 30
107.9999999999994
 11
1.999999999999902
 21
9.500000000000728
 31
107.9999999999995
  0
POLYLINE
  5
26B
330
1F
100
AcDbEntity
  8
0
 62
    33
100
AcDbPolyFaceMesh
 66
     1
 10
0.0
 20
0.0
 30
0.0
 70
    64
 71
     4
 72
     2
1001
ACAD_MATERIAL_MAPPER
1070
     1
1070
     1
1070
     1
1011
0.0
1021
0.0000000000119112
1031
-0.0000000000000121
1011
0.0
1021
-239.9999999999881
1031
-0.0000000000000121
1011
0.0
1021
0.0000000000119112
1031
240.0
1011
1.0
1021
0.0000000000119112
1031
-0.0000000000000121
  0
VERTEX
  5
26C
330
26B
100
AcDbEntity
  8
0
 62
    33
100
AcDbVertex
100
AcDbPolyFaceMeshVertex
 10
137.5000000000006
 20
9.500000000000728
 30
107.9999999999994
 70
   192
  0
VERTEX
  5
26D
330
26B
100
AcDbEntity
  8
0
 62
    33
100
AcDbVertex
100
AcDbPolyFaceMeshVertex
 10
137.5000000000011
 20
4.50000000000006
 30
2.000000000000719
 70
   192
  0
VERTEX
  5
26E
330
26B
100
AcDbEntity
  8
0
 62
    33
100
AcDbVertex
100
AcDbPolyFaceMeshVertex
 10
137.5000000000011
 20
4.50000000000006
 30
108.0000000000007
 70
   192
  0
VERTEX
  5
26F
330
26B
100
AcDbEntity
  8
0
 62
    33
100
AcDbVertex
100
AcDbPolyFaceMeshVertex
 10
137.5000000000006
 20
9.500000000000728
 30
1.999999999999906
 70
   192
  0
VERTEX
  5
270
330
26B
100
AcDbEntity
  8
0
 62
    33
100
AcDbFaceRecord
 10
0.0
 20
0.0
 30
0.0
 70
   128
 71
    -1
 72
     2
 73
     3
  0
VERTEX
  5
271
330
26B
100
AcDbEntity
  8
0
 62
    33
100
AcDbFaceRecord
 10
0.0
 20
0.0
 30
0.0
 70
   128
 71
    -2
 72
     1
 73
     4
  0
SEQEND
  5
272
330
26B
100
AcDbEntity
  8
0
 62
    33
  0
LINE
  5
273
330
1F
100
AcDbEntity
  8
0
 62
     0
100
AcDbLine
 10
137.5000000000006
 20
9.500000000000728
 30
1.999999999999906
 11
137.5000000000006
 21
9.500000000000728
 31
107.9999999999994
  0
LINE
  5
274
330
1F
100
AcDbEntity
  8
0
 62
     0
100
AcDbLine
 10
137.5000000000006
 20
9.500000000000728
 30
1.999999999999906
 11
137.5000000000011
 21
4.50000000000006
 31
2.000000000000719
  0
LINE
  5
275
330
1F
100
AcDbEntity
  8
0
 62
     0
100
AcDbLine
 10
137.5000000000011
 20
4.50000000000006
 30
2.000000000000719
 11
137.5000000000011
 21
4.50000000000006
 31
108.0000000000007
  0
LINE
  5
276
330
1F
100
AcDbEntity
  8
0
 62
     0
100
AcDbLine
 10
137.5000000000011
 20
4.50000000000006
 30
108.0000000000007
 11
137.5000000000006
 21
9.500000000000728
 31
107.9999999999994
  0
POLYLINE
  5
277
330
1F
100
AcDbEntity
  8
0
 62
    33
100
AcDbPolyFaceMesh
 66
     1
 10
0.0
 20
0.0
 30
0.0
 70
    64
 71
     4
 72
     2
1001
ACAD_MATERIAL_MAPPER
1070
     1
1070
     1
1070
     1
1011
0.0
1021
0.0
1031
0.0
1011
240.0
1021
0.0
1031
0.0
1011
0.0
1021
240.0
1031
0.0
1011
0.0
1021
0.0
1031
1.0
  0
VERTEX
  5
278
330
277
100
AcDbEntity
  8
0
 62
    33
100
AcDbVertex
100
AcDbPolyFaceMeshVertex
 10
139.5000000000013
 20
0.0000000000000011
 30
110.0
 70
   192
  0
VERTEX
  5
279
330
277
100
AcDbEntity
  8
0
 62
    33
100
AcDbVertex
100
AcDbPolyFaceMeshVertex
 10
-0.0000000000000045
 20
9.500000000000366
 30
110.0
 70
   192
  0
VERTEX
  5
27A
330
277
100
AcDbEntity
  8
0
 62
    33
100
AcDbVertex
100
AcDbPolyFaceMeshVertex
 10
-0.0000000000000045
 20
0.000000000000361
 30
110.0
 70
   192
  0
VERTEX
  5
27B
330
277
100
AcDbEntity
  8
0
 62
    33
100
AcDbVertex
100
AcDbPolyFaceMeshVertex
 10
139.5000000000005
 20
9.500000000000368
 30
110.0
 70
   192
  0
VERTEX
  5
27C
330
277
100
AcDbEntity
  8
0
 62
    33
100
AcDbFaceRecord
 10
0.0
 20
0.0
 30
0.0
 70
   128
 71
    -1
 72
     2
 73
     3
  0
VERTEX
  5
27D
330
277
100
AcDbEntity
  8
0
 62
    33
100
AcDbFaceRecord
 10
0.0
 20
0.0
 30
0.0
 70
   128
 71
    -2
 72
     1
 73
     4
  0
SEQEND
  5
27E
330
277
100
AcDbEntity
  8
0
 62
    33
  0
LINE
  5
27F
330
1F
100
AcDbEntity
  8
0
 62
     0
100
AcDbLine
 10
139.5000000000005
 20
9.500000000000368
 30
110.0
 11
139.5000000000013
 21
0.0000000000000011
 31
110.0
  0
LINE
  5
280
330
1F
100
AcDbEntity
  8
0
 62
     0
100
AcDbLine
 10
-0.0000000000000045
 20
9.500000000000366
 30
110.0
 11
139.5000000000005
 21
9.500000000000368
 31
110.0
  0
LINE
  5
281
330
1F
100
AcDbEntity
  8
0
 62
     0
100
AcDbLine
 10
-0.0000000000000045
 20
0.000000000000361
 30
110.0
 11
-0.0000000000000045
 21
9.500000000000366
 31
110.0
  0
LINE
  5
282
330
1F
100
AcDbEntity
  8
0
 62
     0
100
AcDbLine
 10
139.5000000000013
 20
0.0000000000000011
 30
110.0
 11
-0.0000000000000045
 21
0.000000000000361
 31
110.0
  0
POLYLINE
  5
283
330
1F
100
AcDbEntity
  8
0
 62
    33
100
AcDbPolyFaceMesh
 66
     1
 10
0.0
 20
0.0
 30
0.0
 70
    64
 71
     8
 72
     8
1001
ACAD_MATERIAL_MAPPER
1070
     1
1070
     1
1070
     1
1011
-0.0000000000000001
1021
0.0
1031
0.0
1011
-240.0
1021
0.0
1031
0.0
1011
-0.0000000000000473
1021
0.0
1031
240.0
1011
-0.0000000000000001
1021
1.0
1031
0.0
  0
VERTEX
  5
284
330
283
100
AcDbEntity
  8
0
 62
    33
100
AcDbVertex
100
AcDbPolyFaceMeshVertex
 10
-0.0000000000000045
 20
9.500000000000366
 30
0.0000000000000001
 70
   192
  0
VERTEX
  5
285
330
283
100
AcDbEntity
  8
0
 62
    33
100
AcDbVertex
100
AcDbPolyFaceMeshVertex
 10
1.999999999999902
 20
9.500000000000366
 30
1.999999999999996
 70
   192
  0
VERTEX
  5
286
330
283
100
AcDbEntity
  8
0
 62
    33
100
AcDbVertex
100
AcDbPolyFaceMeshVertex
 10
137.5000000000006
 20
9.500000000000728
 30
1.999999999999906
 70
   192
  0
VERTEX
  5
287
330
283
100
AcDbEntity
  8
0
 62
    33
100
AcDbVertex
100
AcDbPolyFaceMeshVertex
 10
-0.0000000000000045
 20
9.500000000000366
 30
110.0
 70
   192
  0
VERTEX
  5
288
330
283
100
AcDbEntity
  8
0
 62
    33
100
AcDbVertex
100
AcDbPolyFaceMeshVertex
 10
1.999999999999902
 20
9.500000000000728
 30
107.9999999999995
 70
   192
  0
VERTEX
  5
289
330
283
100
AcDbEntity
  8
0
 62
    33
100
AcDbVertex
100
AcDbPolyFaceMeshVertex
 10
139.5000000000005
 20
9.500000000000368
 30
0.0000000000000001
 70
   192
  0
VERTEX
  5
28A
330
283
100
AcDbEntity
  8
0
 62
    33
100
AcDbVertex
100
AcDbPolyFaceMeshVertex
 10
139.5000000000005
 20
9.500000000000368
 30
110.0
 70
   192
  0
VERTEX
  5
28B
330
283
100
AcDbEntity
  8
0
 62
    33
100
AcDbVertex
100
AcDbPolyFaceMeshVertex
 10
137.5000000000006
 20
9.500000000000728
 30
107.9999999999994
 70
   192
  0
VERTEX
  5
28C
330
283
100
AcDbEntity
  8
0
 62
    33
100
AcDbFaceRecord
 10
0.0
 20
0.0
 30
0.0
 70
   128
 71
    -1
 72
     2
 73
    -3
  0
VERTEX
  5
28D
330
283
100
AcDbEntity
  8
0
 62
    33
100
AcDbFaceRecord
 10
0.0
 20
0.0
 30
0.0
 70
   128
 71
    -2
 72
     1
 73
    -4
  0
VERTEX
  5
28E
330
283
100
AcDbEntity
  8
0
 62
    33
100
AcDbFaceRecord
 10
0.0
 20
0.0
 30
0.0
 70
   128
 71
    -2
 72
    -4
 73
     5
  0
VERTEX
  5
28F
330
283
100
AcDbEntity
  8
0
 62
    33
100
AcDbFaceRecord
 10
0.0
 20
0.0
 30
0.0
 70
   128
 71
    -6
 72
    -3
 73
     7
  0
VERTEX
  5
290
330
283
100
AcDbEntity
  8
0
 62
    33
100
AcDbFaceRecord
 10
0.0
 20
0.0
 30
0.0
 70
   128
 71
    -3
 72
     6
 73
    -1
  0
VERTEX
  5
291
330
283
100
AcDbEntity
  8
0
 62
    33
100
AcDbFaceRecord
 10
0.0
 20
0.0
 30
0.0
 70
   128
 71
    -7
 72
     3
 73
    -8
  0
VERTEX
  5
292
330
283
100
AcDbEntity
  8
0
 62
    33
100
AcDbFaceRecord
 10
0.0
 20
0.0
 30
0.0
 70
   128
 71
    -7
 72
     8
 73
    -5
  0
VERTEX
  5
293
330
283
100
AcDbEntity
  8
0
 62
    33
100
AcDbFaceRecord
 10
0.0
 20
0.0
 30
0.0
 70
   128
 71
    -7
 72
    -5
 73
     4
  0
SEQEND
  5
294
330
283
100
AcDbEntity
  8
0
 62
    33
  0
LINE
  5
295
330
1F
100
AcDbEntity
  8
0
 62
     0
100
AcDbLine
 10
-0.0000000000000045
 20
9.500000000000366
 30
110.0
 11
139.5000000000005
 21
9.500000000000368
 31
110.0
  0
LINE
  5
296
330
1F
100
AcDbEntity
  8
0
 62
     0
100
AcDbLine
 10
139.5000000000005
 20
9.500000000000368
 30
0.0000000000000001
 11
139.5000000000005
 21
9.500000000000368
 31
110.0
  0
LINE
  5
297
330
1F
100
AcDbEntity
  8
0
 62
     0
100
AcDbLine
 10
-0.0000000000000045
 20
9.500000000000366
 30
0.0000000000000001
 11
139.5000000000005
 21
9.500000000000368
 31
0.0000000000000001
  0
LINE
  5
298
330
1F
100
AcDbEntity
  8
0
 62
     0
100
AcDbLine
 10
-0.0000000000000045
 20
9.500000000000366
 30
0.0000000000000001
 11
-0.0000000000000045
 21
9.500000000000366
 31
110.0
  0
LINE
  5
299
330
1F
100
AcDbEntity
  8
0
 62
     0
100
AcDbLine
 10
137.5000000000006
 20
9.500000000000728
 30
1.999999999999906
 11
137.5000000000006
 21
9.500000000000728
 31
107.9999999999994
  0
LINE
  5
29A
330
1F
100
AcDbEntity
  8
0
 62
     0
100
AcDbLine
 10
137.5000000000006
 20
9.500000000000728
 30
107.9999999999994
 11
1.999999999999902
 21
9.500000000000728
 31
107.9999999999995
  0
LINE
  5
29B
330
1F
100
AcDbEntity
  8
0
 62
     0
100
AcDbLine
 10
1.999999999999902
 20
9.500000000000366
 30
1.999999999999996
 11
1.999999999999902
 21
9.500000000000728
 31
107.9999999999995
  0
LINE
  5
29C
330
1F
100
AcDbEntity
  8
0
 62
     0
100
AcDbLine
 10
137.5000000000006
 20
9.500000000000728
 30
1.999999999999906
 11
1.999999999999902
 21
9.500000000000366
 31
1.999999999999996
  0
POLYLINE
  5
29D
330
1F
100
AcDbEntity
  8
0
 62
    33
100
AcDbPolyFaceMesh
 66
     1
 10
0.0
 20
0.0
 30
0.0
 70
    64
 71
    10
 72
    10
1001
ACAD_MATERIAL_MAPPER
1070
     1
1070
     1
1070
     1
1011
0.0
1021
0.0
1031
0.0
1011
1.0
1021
0.0
1031
0.0
1011
0.0
1021
1.0
1031
0.0
1011
0.0
1021
0.0
1031
1.0
  0
VERTEX
  5
29E
330
29D
100
AcDbEntity
  8
0
 62
    33
100
AcDbVertex
100
AcDbPolyFaceMeshVertex
 10
69.75000000000084
 20
0.000000000000361
 30
2.000000000000719
 70
   192
  0
VERTEX
  5
29F
330
29D
100
AcDbEntity
  8
0
 62
    33
100
AcDbVertex
100
AcDbPolyFaceMeshVertex
 10
2.000000000000624
 20
0.000000000000361
 30
2.000000000000718
 70
   192
  0
VERTEX
  5
2A0
330
29D
100
AcDbEntity
  8
0
 62
    33
100
AcDbVertex
100
AcDbPolyFaceMeshVertex
 10
137.5000000000006
 20
0.0000000000003621
 30
2.000000000000628
 70
   192
  0
VERTEX
  5
2A1
330
29D
100
AcDbEntity
  8
0
 62
    33
100
AcDbVertex
100
AcDbPolyFaceMeshVertex
 10
139.5000000000013
 20
0.0000000000000011
 30
0.0000000000000001
 70
   192
  0
VERTEX
  5
2A2
330
29D
100
AcDbEntity
  8
0
 62
    33
100
AcDbVertex
100
AcDbPolyFaceMeshVertex
 10
-0.0000000000000045
 20
0.000000000000361
 30
0.0000000000000001
 70
   192
  0
VERTEX
  5
2A3
330
29D
100
AcDbEntity
  8
0
 62
    33
100
AcDbVertex
100
AcDbPolyFaceMeshVertex
 10
139.5000000000013
 20
0.0000000000000011
 30
110.0
 70
   192
  0
VERTEX
  5
2A4
330
29D
100
AcDbEntity
  8
0
 62
    33
100
AcDbVertex
100
AcDbPolyFaceMeshVertex
 10
137.5000000000006
 20
0.000000000000723
 30
107.9999999999994
 70
   192
  0
VERTEX
  5
2A5
330
29D
100
AcDbEntity
  8
0
 62
    33
100
AcDbVertex
100
AcDbPolyFaceMeshVertex
 10
69.75000000000084
 20
0.000000000000361
 30
108.0000000000007
 70
   192
  0
VERTEX
  5
2A6
330
29D
100
AcDbEntity
  8
0
 62
    33
100
AcDbVertex
100
AcDbPolyFaceMeshVertex
 10
-0.0000000000000045
 20
0.000000000000361
 30
110.0
 70
   192
  0
VERTEX
  5
2A7
330
29D
100
AcDbEntity
  8
0
 62
    33
100
AcDbVertex
100
AcDbPolyFaceMeshVertex
 10
2.000000000000624
 20
0.0000000000007219
 30
107.9999999999995
 70
   192
  0
VERTEX
  5
2A8
330
29D
100
AcDbEntity
  8
0
 62
    33
100
AcDbFaceRecord
 10
0.0
 20
0.0
 30
0.0
 70
   128
 71
     1
 72
    -2
 73
     3
  0
VERTEX
  5
2A9
330
29D
100
AcDbEntity
  8
0
 62
    33
100
AcDbFaceRecord
 10
0.0
 20
0.0
 30
0.0
 70
   128
 71
    -4
 72
    -3
 73
     5
  0
VERTEX
  5
2AA
330
29D
100
AcDbEntity
  8
0
 62
    33
100
AcDbFaceRecord
 10
0.0
 20
0.0
 30
0.0
 70
   128
 71
    -3
 72
     4
 73
    -6
  0
VERTEX
  5
2AB
330
29D
100
AcDbEntity
  8
0
 62
    33
100
AcDbFaceRecord
 10
0.0
 20
0.0
 30
0.0
 70
   128
 71
    -3
 72
    -6
 73
     7
  0
VERTEX
  5
2AC
330
29D
100
AcDbEntity
  8
0
 62
    33
100
AcDbFaceRecord
 10
0.0
 20
0.0
 30
0.0
 70
   128
 71
    -7
 72
    -6
 73
     8
  0
VERTEX
  5
2AD
330
29D
100
AcDbEntity
  8
0
 62
    33
100
AcDbFaceRecord
 10
0.0
 20
0.0
 30
0.0
 70
   128
 71
    -5
 72
    -2
 73
     9
  0
VERTEX
  5
2AE
330
29D
100
AcDbEntity
  8
0
 62
    33
100
AcDbFaceRecord
 10
0.0
 20
0.0
 30
0.0
 70
   128
 71
    -2
 72
    -5
 73
    -3
  0
VERTEX
  5
2AF
330
29D
100
AcDbEntity
  8
0
 62
    33
100
AcDbFaceRecord
 10
0.0
 20
0.0
 30
0.0
 70
   128
 71
    -9
 72
     2
 73
   -10
  0
VERTEX
  5
2B0
330
29D
100
AcDbEntity
  8
0
 62
    33
100
AcDbFaceRecord
 10
0.0
 20
0.0
 30
0.0
 70
   128
 71
    -9
 72
    10
 73
    -8
  0
VERTEX
  5
2B1
330
29D
100
AcDbEntity
  8
0
 62
    33
100
AcDbFaceRecord
 10
0.0
 20
0.0
 30
0.0
 70
   128
 71
    -9
 72
    -8
 73
     6
  0
SEQEND
  5
2B2
330
29D
100
AcDbEntity
  8
0
 62
    33
  0
LINE
  5
2B3
330
1F
100
AcDbEntity
  8
0
 62
     0
100
AcDbLine
 10
139.5000000000013
 20
0.0000000000000011
 30
0.0000000000000001
 11
139.5000000000013
 21
0.0000000000000011
 31
110.0
  0
LINE
  5
2B4
330
1F
100
AcDbEntity
  8
0
 62
     0
100
AcDbLine
 10
139.5000000000013
 20
0.0000000000000011
 30
110.0
 11
-0.0000000000000045
 21
0.000000000000361
 31
110.0
  0
LINE
  5
2B5
330
1F
100
AcDbEntity
  8
0
 62
     0
100
AcDbLine
 10
-0.0000000000000045
 20
0.000000000000361
 30
0.0000000000000001
 11
-0.0000000000000045
 21
0.000000000000361
 31
110.0
  0
LINE
  5
2B6
330
1F
100
AcDbEntity
  8
0
 62
     0
100
AcDbLine
 10
139.5000000000013
 20
0.0000000000000011
 30
0.0000000000000001
 11
-0.0000000000000045
 21
0.000000000000361
 31
0.0000000000000001
  0
LINE
  5
2B7
330
1F
100
AcDbEntity
  8
0
 62
     0
100
AcDbLine
 10
137.5000000000006
 20
0.000000000000723
 30
107.9999999999994
 11
69.75000000000084
 21
0.000000000000361
 31
108.0000000000007
  0
LINE
  5
2B8
330
1F
100
AcDbEntity
  8
0
 62
     0
100
AcDbLine
 10
137.5000000000006
 20
0.0000000000003621
 30
2.000000000000628
 11
137.5000000000006
 21
0.000000000000723
 31
107.9999999999994
  0
LINE
  5
2B9
330
1F
100
AcDbEntity
  8
0
 62
     0
100
AcDbLine
 10
137.5000000000006
 20
0.0000000000003621
 30
2.000000000000628
 11
69.75000000000084
 21
0.000000000000361
 31
2.000000000000719
  0
LINE
  5
2BA
330
1F
100
AcDbEntity
  8
0
 62
     0
100
AcDbLine
 10
69.75000000000084
 20
0.000000000000361
 30
2.000000000000719
 11
2.000000000000624
 21
0.000000000000361
 31
2.000000000000718
  0
LINE
  5
2BB
330
1F
100
AcDbEntity
  8
0
 62
     0
100
AcDbLine
 10
2.000000000000624
 20
0.000000000000361
 30
2.000000000000718
 11
2.000000000000624
 21
0.0000000000007219
 31
107.9999999999995
  0
LINE
  5
2BC
330
1F
100
AcDbEntity
  8
0
 62
     0
100
AcDbLine
 10
69.75000000000084
 20
0.000000000000361
 30
108.0000000000007
 11
2.000000000000624
 21
0.0000000000007219
 31
107.9999999999995
  0
POLYLINE
  5
2BD
330
1F
100
AcDbEntity
  8
0
 62
    33
100
AcDbPolyFaceMesh
 66
     1
 10
0.0
 20
0.0
 30
0.0
 70
    64
 71
     4
 72
     2
1001
ACAD_MATERIAL_MAPPER
1070
     1
1070
     1
1070
     1
1011
0.0
1021
0.0
1031
0.0
1011
-240.0
1021
-0.0000000000000048
1031
0.0
1011
0.0
1021
239.9999999999999
1031
0.0
1011
0.0
1021
0.0
1031
1.0
  0
VERTEX
  5
2BE
330
2BD
100
AcDbEntity
  8
0
 62
    33
100
AcDbVertex
100
AcDbPolyFaceMeshVertex
 10
139.5000000000005
 20
9.500000000000368
 30
0.0000000000000001
 70
   192
  0
VERTEX
  5
2BF
330
2BD
100
AcDbEntity
  8
0
 62
    33
100
AcDbVertex
100
AcDbPolyFaceMeshVertex
 10
-0.0000000000000045
 20
0.000000000000361
 30
0.0000000000000001
 70
   192
  0
VERTEX
  5
2C0
330
2BD
100
AcDbEntity
  8
0
 62
    33
100
AcDbVertex
100
AcDbPolyFaceMeshVertex
 10
-0.0000000000000045
 20
9.500000000000366
 30
0.0000000000000001
 70
   192
  0
VERTEX
  5
2C1
330
2BD
100
AcDbEntity
  8
0
 62
    33
100
AcDbVertex
100
AcDbPolyFaceMeshVertex
 10
139.5000000000013
 20
0.0000000000000011
 30
0.0000000000000001
 70
   192
  0
VERTEX
  5
2C2
330
2BD
100
AcDbEntity
  8
0
 62
    33
100
AcDbFaceRecord
 10
0.0
 20
0.0
 30
0.0
 70
   128
 71
    -1
 72
     2
 73
     3
  0
VERTEX
  5
2C3
330
2BD
100
AcDbEntity
  8
0
 62
    33
100
AcDbFaceRecord
 10
0.0
 20
0.0
 30
0.0
 70
   128
 71
    -2
 72
     1
 73
     4
  0
SEQEND
  5
2C4
330
2BD
100
AcDbEntity
  8
0
 62
    33
  0
LINE
  5
2C5
330
1F
100
AcDbEntity
  8
0
 62
     0
100
AcDbLine
 10
139.5000000000005
 20
9.500000000000368
 30
0.0000000000000001
 11
139.5000000000013
 21
0.0000000000000011
 31
0.0000000000000001
  0
LINE
  5
2C6
330
1F
100
AcDbEntity
  8
0
 62
     0
100
AcDbLine
 10
139.5000000000013
 20
0.0000000000000011
 30
0.0000000000000001
 11
-0.0000000000000045
 21
0.000000000000361
 31
0.0000000000000001
  0
LINE
  5
2C7
330
1F
100
AcDbEntity
  8
0
 62
     0
100
AcDbLine
 10
-0.0000000000000045
 20
0.000000000000361
 30
0.0000000000000001
 11
-0.0000000000000045
 21
9.500000000000366
 31
0.0000000000000001
  0
LINE
  5
2C8
330
1F
100
AcDbEntity
  8
0
 62
     0
100
AcDbLine
 10
-0.0000000000000045
 20
9.500000000000366
 30
0.0000000000000001
 11
139.5000000000005
 21
9.500000000000368
 31
0.0000000000000001
  0
POLYLINE
  5
2C9
330
1F
100
AcDbEntity
  8
0
 62
    33
100
AcDbPolyFaceMesh
 66
     1
 10
0.0
 20
0.0
 30
0.0
 70
    64
 71
     4
 72
     2
1001
ACAD_MATERIAL_MAPPER
1070
     1
1070
     1
1070
     1
1011
0.0
1021
0.0000000000106007
1031
0.0
1011
0.0
1021
240.0000000000106
1031
0.0
1011
0.0
1021
0.0000000000106007
1031
240.0
1011
1.0
1021
0.0000000000106007
1031
0.0
  0
VERTEX
  5
2CA
330
2C9
100
AcDbEntity
  8
0
 62
    33
100
AcDbVertex
100
AcDbPolyFaceMeshVertex
 10
139.5000000000005
 20
9.500000000000368
 30
0.0000000000000001
 70
   192
  0
VERTEX
  5
2CB
330
2C9
100
AcDbEntity
  8
0
 62
    33
100
AcDbVertex
100
AcDbPolyFaceMeshVertex
 10
139.5000000000013
 20
0.0000000000000011
 30
110.0
 70
   192
  0
VERTEX
  5
2CC
330
2C9
100
AcDbEntity
  8
0
 62
    33
100
AcDbVertex
100
AcDbPolyFaceMeshVertex
 10
139.5000000000013
 20
0.0000000000000011
 30
0.0000000000000001
 70
   192
  0
VERTEX
  5
2CD
330
2C9
100
AcDbEntity
  8
0
 62
    33
100
AcDbVertex
100
AcDbPolyFaceMeshVertex
 10
139.5000000000005
 20
9.500000000000368
 30
110.0
 70
   192
  0
VERTEX
  5
2CE
330
2C9
100
AcDbEntity
  8
0
 62
    33
100
AcDbFaceRecord
 10
0.0
 20
0.0
 30
0.0
 70
   128
 71
    -1
 72
     2
 73
     3
  0
VERTEX
  5
2CF
330
2C9
100
AcDbEntity
  8
0
 62
    33
100
AcDbFaceRecord
 10
0.0
 20
0.0
 30
0.0
 70
   128
 71
    -2
 72
     1
 73
     4
  0
SEQEND
  5
2D0
330
2C9
100
AcDbEntity
  8
0
 62
    33
  0
LINE
  5
2D1
330
1F
100
AcDbEntity
  8
0
 62
     0
100
AcDbLine
 10
139.5000000000005
 20
9.500000000000368
 30
0.0000000000000001
 11
139.5000000000013
 21
0.0000000000000011
 31
0.0000000000000001
  0
LINE
  5
2D2
330
1F
100
AcDbEntity
  8
0
 62
     0
100
AcDbLine
 10
139.5000000000005
 20
9.500000000000368
 30
0.0000000000000001
 11
139.5000000000005
 21
9.500000000000368
 31
110.0
  0
LINE
  5
2D3
330
1F
100
AcDbEntity
  8
0
 62
     0
100
AcDbLine
 10
139.5000000000005
 20
9.500000000000368
 30
110.0
 11
139.5000000000013
 21
0.0000000000000011
 31
110.0
  0
LINE
  5
2D4
330
1F
100
AcDbEntity
  8
0
 62
     0
100
AcDbLine
 10
139.5000000000013
 20
0.0000000000000011
 30
0.0000000000000001
 11
139.5000000000013
 21
0.0000000000000011
 31
110.0
  0
POLYLINE
  5
2D5
330
1F
100
AcDbEntity
  8
0
 62
     0
100
AcDbPolyFaceMesh
 66
     1
 10
0.0
 20
0.0
 30
0.0
 70
    64
 71
     4
 72
     2
1001
ACAD_MATERIAL_MAPPER
1070
     1
1070
     1
1070
     1
1011
0.0000000000000192
1021
-0.0000000000000201
1031
0.0
1011
2.540000000000019
1021
-0.0000000000000201
1031
0.0
1011
0.0000000000000192
1021
2.53999999999998
1031
0.0
1011
0.0000000000000192
1021
-0.0000000000000201
1031
1.0
  0
VERTEX
  5
2D6
330
2D5
100
AcDbEntity
  8
0
 62
     0
100
AcDbVertex
100
AcDbPolyFaceMeshVertex
 10
137.5000000000006
 20
0.0000000000003621
 30
2.000000000000628
 70
   192
  0
VERTEX
  5
2D7
330
2D5
100
AcDbEntity
  8
0
 62
     0
100
AcDbVertex
100
AcDbPolyFaceMeshVertex
 10
69.75000000000084
 20
4.50000000000006
 30
2.000000000000719
 70
   192
  0
VERTEX
  5
2D8
330
2D5
100
AcDbEntity
  8
0
 62
     0
100
AcDbVertex
100
AcDbPolyFaceMeshVertex
 10
69.75000000000084
 20
0.000000000000361
 30
2.000000000000719
 70
   192
  0
VERTEX
  5
2D9
330
2D5
100
AcDbEntity
  8
0
 62
     0
100
AcDbVertex
100
AcDbPolyFaceMeshVertex
 10
137.5000000000011
 20
4.50000000000006
 30
2.000000000000719
 70
   192
  0
VERTEX
  5
2DA
330
2D5
100
AcDbEntity
  8
0
 62
     0
100
AcDbFaceRecord
 10
0.0
 20
0.0
 30
0.0
 70
   128
 71
    -1
 72
     2
 73
     3
  0
VERTEX
  5
2DB
330
2D5
100
AcDbEntity
  8
0
 62
     0
100
AcDbFaceRecord
 10
0.0
 20
0.0
 30
0.0
 70
   128
 71
    -2
 72
     1
 73
     4
  0
SEQEND
  5
2DC
330
2D5
100
AcDbEntity
  8
0
 62
     0
  0
LINE
  5
2DD
330
1F
100
AcDbEntity
  8
0
 62
     0
100
AcDbLine
 10
69.75000000000084
 20
4.50000000000006
 30
2.000000000000719
 11
137.5000000000011
 21
4.50000000000006
 31
2.000000000000719
  0
LINE
  5
2DE
330
1F
100
AcDbEntity
  8
0
 62
     0
100
AcDbLine
 10
69.75000000000084
 20
0.000000000000361
 30
2.000000000000719
 11
69.75000000000084
 21
4.50000000000006
 31
2.000000000000719
  0
LINE
  5
2DF
330
1F
100
AcDbEntity
  8
0
 62
     0
100
AcDbLine
 10
137.5000000000006
 20
0.0000000000003621
 30
2.000000000000628
 11
69.75000000000084
 21
0.000000000000361
 31
2.000000000000719
  0
LINE
  5
2E0
330
1F
100
AcDbEntity
  8
0
 62
     0
100
AcDbLine
 10
137.5000000000011
 20
4.50000000000006
 30
2.000000000000719
 11
137.5000000000006
 21
0.0000000000003621
 31
2.000000000000628
  0
POLYLINE
  5
2E1
330
1F
100
AcDbEntity
  8
0
 62
    33
100
AcDbPolyFaceMesh
 66
     1
 10
0.0
 20
0.0
 30
0.0
 70
    64
 71
     4
 72
     2
1001
ACAD_MATERIAL_MAPPER
1070
     1
1070
     1
1070
     1
1011
0.0
1021
0.0
1031
0.0000000000000012
1011
0.0
1021
240.0
1031
0.0000000000000012
1011
0.0
1021
0.0
1031
240.0000000000001
1011
1.0
1021
0.0
1031
0.0000000000000012
  0
VERTEX
  5
2E2
330
2E1
100
AcDbEntity
  8
0
 62
    33
100
AcDbVertex
100
AcDbPolyFaceMeshVertex
 10
74.2500000000009
 20
1.700000000000335
 30
6.500000000000719
 70
   192
  0
VERTEX
  5
2E3
330
2E1
100
AcDbEntity
  8
0
 62
    33
100
AcDbVertex
100
AcDbPolyFaceMeshVertex
 10
74.2500000000009
 20
0.000000000000361
 30
103.5000000000006
 70
   192
  0
VERTEX
  5
2E4
330
2E1
100
AcDbEntity
  8
0
 62
    33
100
AcDbVertex
100
AcDbPolyFaceMeshVertex
 10
74.2500000000009
 20
0.000000000000361
 30
6.500000000000719
 70
   192
  0
VERTEX
  5
2E5
330
2E1
100
AcDbEntity
  8
0
 62
    33
100
AcDbVertex
100
AcDbPolyFaceMeshVertex
 10
74.2500000000009
 20
1.700000000000335
 30
103.5000000000006
 70
   192
  0
VERTEX
  5
2E6
330
2E1
100
AcDbEntity
  8
0
 62
    33
100
AcDbFaceRecord
 10
0.0
 20
0.0
 30
0.0
 70
   128
 71
    -1
 72
     2
 73
     3
  0
VERTEX
  5
2E7
330
2E1
100
AcDbEntity
  8
0
 62
    33
100
AcDbFaceRecord
 10
0.0
 20
0.0
 30
0.0
 70
   128
 71
    -2
 72
     1
 73
     4
  0
SEQEND
  5
2E8
330
2E1
100
AcDbEntity
  8
0
 62
    33
  0
LINE
  5
2E9
330
1F
100
AcDbEntity
  8
0
 62
     0
100
AcDbLine
 10
74.2500000000009
 20
0.000000000000361
 30
6.500000000000719
 11
74.2500000000009
 21
0.000000000000361
 31
103.5000000000006
  0
LINE
  5
2EA
330
1F
100
AcDbEntity
  8
0
 62
     0
100
AcDbLine
 10
74.2500000000009
 20
0.000000000000361
 30
6.500000000000719
 11
74.2500000000009
 21
1.700000000000335
 31
6.500000000000719
  0
LINE
  5
2EB
330
1F
100
AcDbEntity
  8
0
 62
     0
100
AcDbLine
 10
74.2500000000009
 20
1.700000000000335
 30
6.500000000000719
 11
74.2500000000009
 21
1.700000000000335
 31
103.5000000000006
  0
LINE
  5
2EC
330
1F
100
AcDbEntity
  8
0
 62
     0
100
AcDbLine
 10
74.2500000000009
 20
1.700000000000335
 30
103.5000000000006
 11
74.2500000000009
 21
0.000000000000361
 31
103.5000000000006
  0
POLYLINE
  5
2ED
330
1F
100
AcDbEntity
  8
0
 62
    33
100
AcDbPolyFaceMesh
 66
     1
 10
0.0
 20
0.0
 30
0.0
 70
    64
 71
     4
 72
     2
1001
ACAD_MATERIAL_MAPPER
1070
     1
1070
     1
1070
     1
1011
0.0
1021
0.0000000000000004
1031
0.000000000000013
1011
0.0
1021
240.0
1031
0.000000000000013
1011
0.0
1021
0.0000000000000004
1031
240.0
1011
1.0
1021
0.0000000000000004
1031
0.000000000000013
  0
VERTEX
  5
2EE
330
2ED
100
AcDbEntity
  8
0
 62
    33
100
AcDbVertex
100
AcDbPolyFaceMeshVertex
 10
73.3500000000011
 20
4.50000000000006
 30
5.600000000000719
 70
   192
  0
VERTEX
  5
2EF
330
2ED
100
AcDbEntity
  8
0
 62
    33
100
AcDbVertex
100
AcDbPolyFaceMeshVertex
 10
73.35000000000109
 20
1.700000000000335
 30
104.4000000000004
 70
   192
  0
VERTEX
  5
2F0
330
2ED
100
AcDbEntity
  8
0
 62
    33
100
AcDbVertex
100
AcDbPolyFaceMeshVertex
 10
73.3500000000011
 20
1.700000000000335
 30
5.600000000000719
 70
   192
  0
VERTEX
  5
2F1
330
2ED
100
AcDbEntity
  8
0
 62
    33
100
AcDbVertex
100
AcDbPolyFaceMeshVertex
 10
73.35000000000109
 20
4.50000000000006
 30
104.4000000000004
 70
   192
  0
VERTEX
  5
2F2
330
2ED
100
AcDbEntity
  8
0
 62
    33
100
AcDbFaceRecord
 10
0.0
 20
0.0
 30
0.0
 70
   128
 71
    -1
 72
     2
 73
     3
  0
VERTEX
  5
2F3
330
2ED
100
AcDbEntity
  8
0
 62
    33
100
AcDbFaceRecord
 10
0.0
 20
0.0
 30
0.0
 70
   128
 71
    -2
 72
     1
 73
     4
  0
SEQEND
  5
2F4
330
2ED
100
AcDbEntity
  8
0
 62
    33
  0
LINE
  5
2F5
330
1F
100
AcDbEntity
  8
0
 62
     0
100
AcDbLine
 10
73.3500000000011
 20
1.700000000000335
 30
5.600000000000719
 11
73.35000000000109
 21
1.700000000000335
 31
104.4000000000004
  0
LINE
  5
2F6
330
1F
100
AcDbEntity
  8
0
 62
     0
100
AcDbLine
 10
73.3500000000011
 20
4.50000000000006
 30
5.600000000000719
 11
73.3500000000011
 21
1.700000000000335
 31
5.600000000000719
  0
LINE
  5
2F7
330
1F
100
AcDbEntity
  8
0
 62
     0
100
AcDbLine
 10
73.3500000000011
 20
4.50000000000006
 30
5.600000000000719
 11
73.35000000000109
 21
4.50000000000006
 31
104.4000000000004
  0
LINE
  5
2F8
330
1F
100
AcDbEntity
  8
0
 62
     0
100
AcDbLine
 10
73.35000000000109
 20
4.50000000000006
 30
104.4000000000004
 11
73.35000000000109
 21
1.700000000000335
 31
104.4000000000004
  0
POLYLINE
  5
2F9
330
1F
100
AcDbEntity
  8
0
 62
    33
100
AcDbPolyFaceMesh
 66
     1
 10
0.0
 20
0.0
 30
0.0
 70
    64
 71
     4
 72
     2
1001
ACAD_MATERIAL_MAPPER
1070
     1
1070
     1
1070
     1
1011
0.000000000000032
1021
0.0
1031
0.0
1011
240.0000000000001
1021
0.0
1031
0.0
1011
0.000000000000032
1021
240.0
1031
0.0
1011
0.000000000000032
1021
0.0
1031
1.0
  0
VERTEX
  5
2FA
330
2F9
100
AcDbEntity
  8
0
 62
    33
100
AcDbVertex
100
AcDbPolyFaceMeshVertex
 10
133.000000000001
 20
0.0000000000003621
 30
6.500000000000718
 70
   192
  0
VERTEX
  5
2FB
330
2F9
100
AcDbEntity
  8
0
 62
    33
100
AcDbVertex
100
AcDbPolyFaceMeshVertex
 10
74.2500000000009
 20
1.700000000000335
 30
6.500000000000719
 70
   192
  0
VERTEX
  5
2FC
330
2F9
100
AcDbEntity
  8
0
 62
    33
100
AcDbVertex
100
AcDbPolyFaceMeshVertex
 10
74.2500000000009
 20
0.000000000000361
 30
6.500000000000719
 70
   192
  0
VERTEX
  5
2FD
330
2F9
100
AcDbEntity
  8
0
 62
    33
100
AcDbVertex
100
AcDbPolyFaceMeshVertex
 10
133.000000000001
 20
1.700000000000336
 30
6.500000000000718
 70
   192
  0
VERTEX
  5
2FE
330
2F9
100
AcDbEntity
  8
0
 62
    33
100
AcDbFaceRecord
 10
0.0
 20
0.0
 30
0.0
 70
   128
 71
    -1
 72
     2
 73
     3
  0
VERTEX
  5
2FF
330
2F9
100
AcDbEntity
  8
0
 62
    33
100
AcDbFaceRecord
 10
0.0
 20
0.0
 30
0.0
 70
   128
 71
    -2
 72
     1
 73
     4
  0
SEQEND
  5
300
330
2F9
100
AcDbEntity
  8
0
 62
    33
  0
LINE
  5
301
330
1F
100
AcDbEntity
  8
0
 62
     0
100
AcDbLine
 10
133.000000000001
 20
1.700000000000336
 30
6.500000000000718
 11
133.000000000001
 21
0.0000000000003621
 31
6.500000000000718
  0
LINE
  5
302
330
1F
100
AcDbEntity
  8
0
 62
     0
100
AcDbLine
 10
133.000000000001
 20
1.700000000000336
 30
6.500000000000718
 11
74.2500000000009
 21
1.700000000000335
 31
6.500000000000719
  0
LINE
  5
303
330
1F
100
AcDbEntity
  8
0
 62
     0
100
AcDbLine
 10
74.2500000000009
 20
0.000000000000361
 30
6.500000000000719
 11
74.2500000000009
 21
1.700000000000335
 31
6.500000000000719
  0
LINE
  5
304
330
1F
100
AcDbEntity
  8
0
 62
     0
100
AcDbLine
 10
133.000000000001
 20
0.0000000000003621
 30
6.500000000000718
 11
74.2500000000009
 21
0.000000000000361
 31
6.500000000000719
  0
POLYLINE
  5
305
330
1F
100
AcDbEntity
  8
0
 62
    33
100
AcDbPolyFaceMesh
 66
     1
 10
0.0
 20
0.0
 30
0.0
 70
    64
 71
     4
 72
     2
1001
ACAD_MATERIAL_MAPPER
1070
     1
1070
     1
1070
     1
1011
0.0
1021
0.0
1031
0.0
1011
240.0
1021
-0.0000000000000012
1031
0.0
1011
0.0
1021
240.0
1031
0.0
1011
0.0
1021
0.0
1031
1.0
  0
VERTEX
  5
306
330
305
100
AcDbEntity
  8
0
 62
    33
100
AcDbVertex
100
AcDbPolyFaceMeshVertex
 10
133.9000000000008
 20
1.70000000000048
 30
5.600000000000713
 70
   192
  0
VERTEX
  5
307
330
305
100
AcDbEntity
  8
0
 62
    33
100
AcDbVertex
100
AcDbPolyFaceMeshVertex
 10
73.3500000000011
 20
4.50000000000006
 30
5.600000000000719
 70
   192
  0
VERTEX
  5
308
330
305
100
AcDbEntity
  8
0
 62
    33
100
AcDbVertex
100
AcDbPolyFaceMeshVertex
 10
73.3500000000011
 20
1.700000000000335
 30
5.600000000000719
 70
   192
  0
VERTEX
  5
309
330
305
100
AcDbEntity
  8
0
 62
    33
100
AcDbVertex
100
AcDbPolyFaceMeshVertex
 10
133.9000000000015
 20
4.500000000000204
 30
5.600000000000713
 70
   192
  0
VERTEX
  5
30A
330
305
100
AcDbEntity
  8
0
 62
    33
100
AcDbFaceRecord
 10
0.0
 20
0.0
 30
0.0
 70
   128
 71
    -1
 72
     2
 73
     3
  0
VERTEX
  5
30B
330
305
100
AcDbEntity
  8
0
 62
    33
100
AcDbFaceRecord
 10
0.0
 20
0.0
 30
0.0
 70
   128
 71
    -2
 72
     1
 73
     4
  0
SEQEND
  5
30C
330
305
100
AcDbEntity
  8
0
 62
    33
  0
LINE
  5
30D
330
1F
100
AcDbEntity
  8
0
 62
     0
100
AcDbLine
 10
73.3500000000011
 20
4.50000000000006
 30
5.600000000000719
 11
133.9000000000015
 21
4.500000000000204
 31
5.600000000000713
  0
LINE
  5
30E
330
1F
100
AcDbEntity
  8
0
 62
     0
100
AcDbLine
 10
73.3500000000011
 20
4.50000000000006
 30
5.600000000000719
 11
73.3500000000011
 21
1.700000000000335
 31
5.600000000000719
  0
LINE
  5
30F
330
1F
100
AcDbEntity
  8
0
 62
     0
100
AcDbLine
 10
133.9000000000008
 20
1.70000000000048
 30
5.600000000000713
 11
73.3500000000011
 21
1.700000000000335
 31
5.600000000000719
  0
LINE
  5
310
330
1F
100
AcDbEntity
  8
0
 62
     0
100
AcDbLine
 10
133.9000000000015
 20
4.500000000000204
 30
5.600000000000713
 11
133.9000000000008
 21
1.70000000000048
 31
5.600000000000713
  0
POLYLINE
  5
311
330
1F
100
AcDbEntity
  8
0
 62
    33
100
AcDbPolyFaceMesh
 66
     1
 10
0.0
 20
0.0
 30
0.0
 70
    64
 71
     4
 72
     2
1001
ACAD_MATERIAL_MAPPER
1070
     1
1070
     1
1070
     1
1011
0.0
1021
-0.0000000000172614
1031
0.0000000000005895
1011
0.0
1021
-240.0000000000172
1031
0.0000000000005895
1011
0.0
1021
-0.0000000000172614
1031
240.0000000000006
1011
1.0
1021
-0.0000000000172614
1031
0.0000000000005895
  0
VERTEX
  5
312
330
311
100
AcDbEntity
  8
0
 62
    33
100
AcDbVertex
100
AcDbPolyFaceMeshVertex
 10
133.9000000000007
 20
4.500000000000204
 30
104.4000000000004
 70
   192
  0
VERTEX
  5
313
330
311
100
AcDbEntity
  8
0
 62
    33
100
AcDbVertex
100
AcDbPolyFaceMeshVertex
 10
133.9000000000008
 20
1.70000000000048
 30
5.600000000000713
 70
   192
  0
VERTEX
  5
314
330
311
100
AcDbEntity
  8
0
 62
    33
100
AcDbVertex
100
AcDbPolyFaceMeshVertex
 10
133.9000000000007
 20
1.70000000000048
 30
104.4000000000004
 70
   192
  0
VERTEX
  5
315
330
311
100
AcDbEntity
  8
0
 62
    33
100
AcDbVertex
100
AcDbPolyFaceMeshVertex
 10
133.9000000000015
 20
4.500000000000204
 30
5.600000000000713
 70
   192
  0
VERTEX
  5
316
330
311
100
AcDbEntity
  8
0
 62
    33
100
AcDbFaceRecord
 10
0.0
 20
0.0
 30
0.0
 70
   128
 71
    -1
 72
     2
 73
     3
  0
VERTEX
  5
317
330
311
100
AcDbEntity
  8
0
 62
    33
100
AcDbFaceRecord
 10
0.0
 20
0.0
 30
0.0
 70
   128
 71
    -2
 72
     1
 73
     4
  0
SEQEND
  5
318
330
311
100
AcDbEntity
  8
0
 62
    33
  0
LINE
  5
319
330
1F
100
AcDbEntity
  8
0
 62
     0
100
AcDbLine
 10
133.9000000000008
 20
1.70000000000048
 30
5.600000000000713
 11
133.9000000000007
 21
1.70000000000048
 31
104.4000000000004
  0
LINE
  5
31A
330
1F
100
AcDbEntity
  8
0
 62
     0
100
AcDbLine
 10
133.9000000000007
 20
4.500000000000204
 30
104.4000000000004
 11
133.9000000000007
 21
1.70000000000048
 31
104.4000000000004
  0
LINE
  5
31B
330
1F
100
AcDbEntity
  8
0
 62
     0
100
AcDbLine
 10
133.9000000000015
 20
4.500000000000204
 30
5.600000000000713
 11
133.9000000000007
 21
4.500000000000204
 31
104.4000000000004
  0
LINE
  5
31C
330
1F
100
AcDbEntity
  8
0
 62
     0
100
AcDbLine
 10
133.9000000000015
 20
4.500000000000204
 30
5.600000000000713
 11
133.9000000000008
 21
1.70000000000048
 31
5.600000000000713
  0
POLYLINE
  5
31D
330
1F
100
AcDbEntity
  8
0
 62
    33
100
AcDbPolyFaceMesh
 66
     1
 10
0.0
 20
0.0
 30
0.0
 70
    64
 71
     8
 72
     8
1001
ACAD_MATERIAL_MAPPER
1070
     1
1070
     1
1070
     1
1011
-0.0000000000000262
1021
0.0
1031
0.0
1011
-240.0000000000001
1021
0.0
1031
0.0
1011
-0.0000000000007604
1021
0.0
1031
240.0
1011
-0.0000000000000262
1021
1.0
1031
0.0
  0
VERTEX
  5
31E
330
31D
100
AcDbEntity
  8
0
 62
    33
100
AcDbVertex
100
AcDbPolyFaceMeshVertex
 10
69.75000000000084
 20
4.50000000000006
 30
2.000000000000719
 70
   192
  0
VERTEX
  5
31F
330
31D
100
AcDbEntity
  8
0
 62
    33
100
AcDbVertex
100
AcDbPolyFaceMeshVertex
 10
73.3500000000011
 20
4.50000000000006
 30
5.600000000000719
 70
   192
  0
VERTEX
  5
320
330
31D
100
AcDbEntity
  8
0
 62
    33
100
AcDbVertex
100
AcDbPolyFaceMeshVertex
 10
137.5000000000011
 20
4.50000000000006
 30
2.000000000000719
 70
   192
  0
VERTEX
  5
321
330
31D
100
AcDbEntity
  8
0
 62
    33
100
AcDbVertex
100
AcDbPolyFaceMeshVertex
 10
69.75000000000084
 20
4.50000000000006
 30
108.0000000000007
 70
   192
  0
VERTEX
  5
322
330
31D
100
AcDbEntity
  8
0
 62
    33
100
AcDbVertex
100
AcDbPolyFaceMeshVertex
 10
133.9000000000015
 20
4.500000000000204
 30
5.600000000000713
 70
   192
  0
VERTEX
  5
323
330
31D
100
AcDbEntity
  8
0
 62
    33
100
AcDbVertex
100
AcDbPolyFaceMeshVertex
 10
73.35000000000109
 20
4.50000000000006
 30
104.4000000000004
 70
   192
  0
VERTEX
  5
324
330
31D
100
AcDbEntity
  8
0
 62
    33
100
AcDbVertex
100
AcDbPolyFaceMeshVertex
 10
137.5000000000011
 20
4.50000000000006
 30
108.0000000000007
 70
   192
  0
VERTEX
  5
325
330
31D
100
AcDbEntity
  8
0
 62
    33
100
AcDbVertex
100
AcDbPolyFaceMeshVertex
 10
133.9000000000007
 20
4.500000000000204
 30
104.4000000000004
 70
   192
  0
VERTEX
  5
326
330
31D
100
AcDbEntity
  8
0
 62
    33
100
AcDbFaceRecord
 10
0.0
 20
0.0
 30
0.0
 70
   128
 71
    -1
 72
    -2
 73
     3
  0
VERTEX
  5
327
330
31D
100
AcDbEntity
  8
0
 62
    33
100
AcDbFaceRecord
 10
0.0
 20
0.0
 30
0.0
 70
   128
 71
    -2
 72
     1
 73
    -4
  0
VERTEX
  5
328
330
31D
100
AcDbEntity
  8
0
 62
    33
100
AcDbFaceRecord
 10
0.0
 20
0.0
 30
0.0
 70
   128
 71
    -3
 72
     2
 73
    -5
  0
VERTEX
  5
329
330
31D
100
AcDbEntity
  8
0
 62
    33
100
AcDbFaceRecord
 10
0.0
 20
0.0
 30
0.0
 70
   128
 71
    -2
 72
    -4
 73
     6
  0
VERTEX
  5
32A
330
31D
100
AcDbEntity
  8
0
 62
    33
100
AcDbFaceRecord
 10
0.0
 20
0.0
 30
0.0
 70
   128
 71
    -5
 72
     7
 73
    -3
  0
VERTEX
  5
32B
330
31D
100
AcDbEntity
  8
0
 62
    33
100
AcDbFaceRecord
 10
0.0
 20
0.0
 30
0.0
 70
   128
 71
    -7
 72
     5
 73
    -8
  0
VERTEX
  5
32C
330
31D
100
AcDbEntity
  8
0
 62
    33
100
AcDbFaceRecord
 10
0.0
 20
0.0
 30
0.0
 70
   128
 71
    -7
 72
     8
 73
    -6
  0
VERTEX
  5
32D
330
31D
100
AcDbEntity
  8
0
 62
    33
100
AcDbFaceRecord
 10
0.0
 20
0.0
 30
0.0
 70
   128
 71
    -7
 72
    -6
 73
     4
  0
SEQEND
  5
32E
330
31D
100
AcDbEntity
  8
0
 62
    33
  0
LINE
  5
32F
330
1F
100
AcDbEntity
  8
0
 62
     0
100
AcDbLine
 10
69.75000000000084
 20
4.50000000000006
 30
2.000000000000719
 11
69.75000000000084
 21
4.50000000000006
 31
108.0000000000007
  0
LINE
  5
330
330
1F
100
AcDbEntity
  8
0
 62
     0
100
AcDbLine
 10
137.5000000000011
 20
4.50000000000006
 30
108.0000000000007
 11
69.75000000000084
 21
4.50000000000006
 31
108.0000000000007
  0
LINE
  5
331
330
1F
100
AcDbEntity
  8
0
 62
     0
100
AcDbLine
 10
137.5000000000011
 20
4.50000000000006
 30
2.000000000000719
 11
137.5000000000011
 21
4.50000000000006
 31
108.0000000000007
  0
LINE
  5
332
330
1F
100
AcDbEntity
  8
0
 62
     0
100
AcDbLine
 10
69.75000000000084
 20
4.50000000000006
 30
2.000000000000719
 11
137.5000000000011
 21
4.50000000000006
 31
2.000000000000719
  0
LINE
  5
333
330
1F
100
AcDbEntity
  8
0
 62
     0
100
AcDbLine
 10
133.9000000000015
 20
4.500000000000204
 30
5.600000000000713
 11
133.9000000000007
 21
4.500000000000204
 31
104.4000000000004
  0
LINE
  5
334
330
1F
100
AcDbEntity
  8
0
 62
     0
100
AcDbLine
 10
73.35000000000109
 20
4.50000000000006
 30
104.4000000000004
 11
133.9000000000007
 21
4.500000000000204
 31
104.4000000000004
  0
LINE
  5
335
330
1F
100
AcDbEntity
  8
0
 62
     0
100
AcDbLine
 10
73.3500000000011
 20
4.50000000000006
 30
5.600000000000719
 11
73.35000000000109
 21
4.50000000000006
 31
104.4000000000004
  0
LINE
  5
336
330
1F
100
AcDbEntity
  8
0
 62
     0
100
AcDbLine
 10
73.3500000000011
 20
4.50000000000006
 30
5.600000000000719
 11
133.9000000000015
 21
4.500000000000204
 31
5.600000000000713
  0
POLYLINE
  5
337
330
1F
100
AcDbEntity
  8
0
 62
     0
100
AcDbPolyFaceMesh
 66
     1
 10
0.0
 20
0.0
 30
0.0
 70
    64
 71
     4
 72
     2
1001
ACAD_MATERIAL_MAPPER
1070
     1
1070
     1
1070
     1
1011
0.0
1021
-0.000000000013235
1031
-0.0000000000000004
1011
0.0
1021
-2.540000000013235
1031
-0.0000000000000006
1011
0.0
1021
-0.000000000013235
1031
2.54
1011
1.0
1021
-0.000000000013235
1031
-0.0000000000000004
  0
VERTEX
  5
338
330
337
100
AcDbEntity
  8
0
 62
     0
100
AcDbVertex
100
AcDbPolyFaceMeshVertex
 10
137.5000000000006
 20
0.000000000000723
 30
107.9999999999994
 70
   192
  0
VERTEX
  5
339
330
337
100
AcDbEntity
  8
0
 62
     0
100
AcDbVertex
100
AcDbPolyFaceMeshVertex
 10
137.5000000000011
 20
4.50000000000006
 30
2.000000000000719
 70
   192
  0
VERTEX
  5
33A
330
337
100
AcDbEntity
  8
0
 62
     0
100
AcDbVertex
100
AcDbPolyFaceMeshVertex
 10
137.5000000000006
 20
0.0000000000003621
 30
2.000000000000628
 70
   192
  0
VERTEX
  5
33B
330
337
100
AcDbEntity
  8
0
 62
     0
100
AcDbVertex
100
AcDbPolyFaceMeshVertex
 10
137.5000000000011
 20
4.50000000000006
 30
108.0000000000007
 70
   192
  0
VERTEX
  5
33C
330
337
100
AcDbEntity
  8
0
 62
     0
100
AcDbFaceRecord
 10
0.0
 20
0.0
 30
0.0
 70
   128
 71
    -1
 72
     2
 73
     3
  0
VERTEX
  5
33D
330
337
100
AcDbEntity
  8
0
 62
     0
100
AcDbFaceRecord
 10
0.0
 20
0.0
 30
0.0
 70
   128
 71
    -2
 72
     1
 73
     4
  0
SEQEND
  5
33E
330
337
100
AcDbEntity
  8
0
 62
     0
  0
LINE
  5
33F
330
1F
100
AcDbEntity
  8
0
 62
     0
100
AcDbLine
 10
137.5000000000011
 20
4.50000000000006
 30
2.000000000000719
 11
137.5000000000006
 21
0.0000000000003621
 31
2.000000000000628
  0
LINE
  5
340
330
1F
100
AcDbEntity
  8
0
 62
     0
100
AcDbLine
 10
137.5000000000006
 20
0.0000000000003621
 30
2.000000000000628
 11
137.5000000000006
 21
0.000000000000723
 31
107.9999999999994
  0
LINE
  5
341
330
1F
100
AcDbEntity
  8
0
 62
     0
100
AcDbLine
 10
137.5000000000006
 20
0.000000000000723
 30
107.9999999999994
 11
137.5000000000011
 21
4.50000000000006
 31
108.0000000000007
  0
LINE
  5
342
330
1F
100
AcDbEntity
  8
0
 62
     0
100
AcDbLine
 10
137.5000000000011
 20
4.50000000000006
 30
2.000000000000719
 11
137.5000000000011
 21
4.50000000000006
 31
108.0000000000007
  0
POLYLINE
  5
343
330
1F
100
AcDbEntity
  8
0
 62
    33
100
AcDbPolyFaceMesh
 66
     1
 10
0.0
 20
0.0
 30
0.0
 70
    64
 71
     4
 72
     2
1001
ACAD_MATERIAL_MAPPER
1070
     1
1070
     1
1070
     1
1011
0.0
1021
0.0
1031
0.0000000000001515
1011
0.0
1021
-240.0
1031
0.0000000000001515
1011
0.0
1021
0.0
1031
240.0000000000001
1011
1.0
1021
0.0
1031
0.0000000000001515
  0
VERTEX
  5
344
330
343
100
AcDbEntity
  8
0
 62
    33
100
AcDbVertex
100
AcDbPolyFaceMeshVertex
 10
133.0000000000009
 20
1.700000000000336
 30
103.5000000000006
 70
   192
  0
VERTEX
  5
345
330
343
100
AcDbEntity
  8
0
 62
    33
100
AcDbVertex
100
AcDbPolyFaceMeshVertex
 10
133.000000000001
 20
0.0000000000003621
 30
6.500000000000718
 70
   192
  0
VERTEX
  5
346
330
343
100
AcDbEntity
  8
0
 62
    33
100
AcDbVertex
100
AcDbPolyFaceMeshVertex
 10
133.0000000000009
 20
0.0000000000003621
 30
103.5000000000006
 70
   192
  0
VERTEX
  5
347
330
343
100
AcDbEntity
  8
0
 62
    33
100
AcDbVertex
100
AcDbPolyFaceMeshVertex
 10
133.000000000001
 20
1.700000000000336
 30
6.500000000000718
 70
   192
  0
VERTEX
  5
348
330
343
100
AcDbEntity
  8
0
 62
    33
100
AcDbFaceRecord
 10
0.0
 20
0.0
 30
0.0
 70
   128
 71
    -1
 72
     2
 73
     3
  0
VERTEX
  5
349
330
343
100
AcDbEntity
  8
0
 62
    33
100
AcDbFaceRecord
 10
0.0
 20
0.0
 30
0.0
 70
   128
 71
    -2
 72
     1
 73
     4
  0
SEQEND
  5
34A
330
343
100
AcDbEntity
  8
0
 62
    33
  0
LINE
  5
34B
330
1F
100
AcDbEntity
  8
0
 62
     0
100
AcDbLine
 10
133.000000000001
 20
0.0000000000003621
 30
6.500000000000718
 11
133.0000000000009
 21
0.0000000000003621
 31
103.5000000000006
  0
LINE
  5
34C
330
1F
100
AcDbEntity
  8
0
 62
     0
100
AcDbLine
 10
133.0000000000009
 20
1.700000000000336
 30
103.5000000000006
 11
133.0000000000009
 21
0.0000000000003621
 31
103.5000000000006
  0
LINE
  5
34D
330
1F
100
AcDbEntity
  8
0
 62
     0
100
AcDbLine
 10
133.000000000001
 20
1.700000000000336
 30
6.500000000000718
 11
133.0000000000009
 21
1.700000000000336
 31
103.5000000000006
  0
LINE
  5
34E
330
1F
100
AcDbEntity
  8
0
 62
     0
100
AcDbLine
 10
133.000000000001
 20
1.700000000000336
 30
6.500000000000718
 11
133.000000000001
 21
0.0000000000003621
 31
6.500000000000718
  0
POLYLINE
  5
34F
330
1F
100
AcDbEntity
  8
0
 62
    33
100
AcDbPolyFaceMesh
 66
     1
 10
0.0
 20
0.0
 30
0.0
 70
    64
 71
     8
 72
     8
1001
ACAD_MATERIAL_MAPPER
1070
     1
1070
     1
1070
     1
1011
0.000000000000042
1021
0.0
1031
0.0000000000000007
1011
240.0
1021
0.0
1031
0.0000000000000007
1011
0.0000000000004615
1021
0.0
1031
240.0
1011
0.000000000000042
1021
1.0
1031
0.0000000000000007
  0
VERTEX
  5
350
330
34F
100
AcDbEntity
  8
0
 62
    33
100
AcDbVertex
100
AcDbPolyFaceMeshVertex
 10
137.5000000000006
 20
0.0000000000003621
 30
2.000000000000628
 70
   192
  0
VERTEX
  5
351
330
34F
100
AcDbEntity
  8
0
 62
    33
100
AcDbVertex
100
AcDbPolyFaceMeshVertex
 10
133.000000000001
 20
0.0000000000003621
 30
6.500000000000718
 70
   192
  0
VERTEX
  5
352
330
34F
100
AcDbEntity
  8
0
 62
    33
100
AcDbVertex
100
AcDbPolyFaceMeshVertex
 10
69.75000000000084
 20
0.000000000000361
 30
2.000000000000719
 70
   192
  0
VERTEX
  5
353
330
34F
100
AcDbEntity
  8
0
 62
    33
100
AcDbVertex
100
AcDbPolyFaceMeshVertex
 10
137.5000000000006
 20
0.000000000000723
 30
107.9999999999994
 70
   192
  0
VERTEX
  5
354
330
34F
100
AcDbEntity
  8
0
 62
    33
100
AcDbVertex
100
AcDbPolyFaceMeshVertex
 10
133.0000000000009
 20
0.0000000000003621
 30
103.5000000000006
 70
   192
  0
VERTEX
  5
355
330
34F
100
AcDbEntity
  8
0
 62
    33
100
AcDbVertex
100
AcDbPolyFaceMeshVertex
 10
74.2500000000009
 20
0.000000000000361
 30
103.5000000000006
 70
   192
  0
VERTEX
  5
356
330
34F
100
AcDbEntity
  8
0
 62
    33
100
AcDbVertex
100
AcDbPolyFaceMeshVertex
 10
74.2500000000009
 20
0.000000000000361
 30
6.500000000000719
 70
   192
  0
VERTEX
  5
357
330
34F
100
AcDbEntity
  8
0
 62
    33
100
AcDbVertex
100
AcDbPolyFaceMeshVertex
 10
69.75000000000084
 20
0.000000000000361
 30
108.0000000000007
 70
   192
  0
VERTEX
  5
358
330
34F
100
AcDbEntity
  8
0
 62
    33
100
AcDbFaceRecord
 10
0.0
 20
0.0
 30
0.0
 70
   128
 71
    -1
 72
    -2
 73
     3
  0
VERTEX
  5
359
330
34F
100
AcDbEntity
  8
0
 62
    33
100
AcDbFaceRecord
 10
0.0
 20
0.0
 30
0.0
 70
   128
 71
    -2
 72
     1
 73
    -4
  0
VERTEX
  5
35A
330
34F
100
AcDbEntity
  8
0
 62
    33
100
AcDbFaceRecord
 10
0.0
 20
0.0
 30
0.0
 70
   128
 71
    -2
 72
    -4
 73
     5
  0
VERTEX
  5
35B
330
34F
100
AcDbEntity
  8
0
 62
    33
100
AcDbFaceRecord
 10
0.0
 20
0.0
 30
0.0
 70
   128
 71
    -5
 72
    -4
 73
     6
  0
VERTEX
  5
35C
330
34F
100
AcDbEntity
  8
0
 62
    33
100
AcDbFaceRecord
 10
0.0
 20
0.0
 30
0.0
 70
   128
 71
    -3
 72
    -7
 73
     8
  0
VERTEX
  5
35D
330
34F
100
AcDbEntity
  8
0
 62
    33
100
AcDbFaceRecord
 10
0.0
 20
0.0
 30
0.0
 70
   128
 71
    -7
 72
    -3
 73
     2
  0
VERTEX
  5
35E
330
34F
100
AcDbEntity
  8
0
 62
    33
100
AcDbFaceRecord
 10
0.0
 20
0.0
 30
0.0
 70
   128
 71
    -8
 72
     7
 73
    -6
  0
VERTEX
  5
35F
330
34F
100
AcDbEntity
  8
0
 62
    33
100
AcDbFaceRecord
 10
0.0
 20
0.0
 30
0.0
 70
   128
 71
    -8
 72
    -6
 73
     4
  0
SEQEND
  5
360
330
34F
100
AcDbEntity
  8
0
 62
    33
  0
LINE
  5
361
330
1F
100
AcDbEntity
  8
0
 62
     0
100
AcDbLine
 10
137.5000000000006
 20
0.000000000000723
 30
107.9999999999994
 11
69.75000000000084
 21
0.000000000000361
 31
108.0000000000007
  0
LINE
  5
362
330
1F
100
AcDbEntity
  8
0
 62
     0
100
AcDbLine
 10
69.75000000000084
 20
0.000000000000361
 30
2.000000000000719
 11
69.75000000000084
 21
0.000000000000361
 31
108.0000000000007
  0
LINE
  5
363
330
1F
100
AcDbEntity
  8
0
 62
     0
100
AcDbLine
 10
137.5000000000006
 20
0.0000000000003621
 30
2.000000000000628
 11
69.75000000000084
 21
0.000000000000361
 31
2.000000000000719
  0
LINE
  5
364
330
1F
100
AcDbEntity
  8
0
 62
     0
100
AcDbLine
 10
137.5000000000006
 20
0.0000000000003621
 30
2.000000000000628
 11
137.5000000000006
 21
0.000000000000723
 31
107.9999999999994
  0
LINE
  5
365
330
1F
100
AcDbEntity
  8
0
 62
     0
100
AcDbLine
 10
74.2500000000009
 20
0.000000000000361
 30
103.5000000000006
 11
133.0000000000009
 21
0.0000000000003621
 31
103.5000000000006
  0
LINE
  5
366
330
1F
100
AcDbEntity
  8
0
 62
     0
100
AcDbLine
 10
133.000000000001
 20
0.0000000000003621
 30
6.500000000000718
 11
133.0000000000009
 21
0.0000000000003621
 31
103.5000000000006
  0
LINE
  5
367
330
1F
100
AcDbEntity
  8
0
 62
     0
100
AcDbLine
 10
133.000000000001
 20
0.0000000000003621
 30
6.500000000000718
 11
74.2500000000009
 21
0.000000000000361
 31
6.500000000000719
  0
LINE
  5
368
330
1F
100
AcDbEntity
  8
0
 62
     0
100
AcDbLine
 10
74.2500000000009
 20
0.000000000000361
 30
6.500000000000719
 11
74.2500000000009
 21
0.000000000000361
 31
103.5000000000006
  0
POLYLINE
  5
369
330
1F
100
AcDbEntity
  8
0
 62
     0
100
AcDbPolyFaceMesh
 66
     1
 10
0.0
 20
0.0
 30
0.0
 70
    64
 71
     4
 72
     2
1001
ACAD_MATERIAL_MAPPER
1070
     1
1070
     1
1070
     1
1011
0.0000000000010682
1021
-0.0000000000160273
1031
0.0
1011
-2.539999999998933
1021
-0.0000000000160273
1031
0.0
1011
0.0000000000010682
1021
2.539999999983973
1031
0.0
1011
0.0000000000010682
1021
-0.0000000000160273
1031
1.0
  0
VERTEX
  5
36A
330
369
100
AcDbEntity
  8
0
 62
     0
100
AcDbVertex
100
AcDbPolyFaceMeshVertex
 10
137.5000000000011
 20
4.50000000000006
 30
108.0000000000007
 70
   192
  0
VERTEX
  5
36B
330
369
100
AcDbEntity
  8
0
 62
     0
100
AcDbVertex
100
AcDbPolyFaceMeshVertex
 10
69.75000000000084
 20
0.000000000000361
 30
108.0000000000007
 70
   192
  0
VERTEX
  5
36C
330
369
100
AcDbEntity
  8
0
 62
     0
100
AcDbVertex
100
AcDbPolyFaceMeshVertex
 10
69.75000000000084
 20
4.50000000000006
 30
108.0000000000007
 70
   192
  0
VERTEX
  5
36D
330
369
100
AcDbEntity
  8
0
 62
     0
100
AcDbVertex
100
AcDbPolyFaceMeshVertex
 10
137.5000000000006
 20
0.000000000000723
 30
107.9999999999994
 70
   192
  0
VERTEX
  5
36E
330
369
100
AcDbEntity
  8
0
 62
     0
100
AcDbFaceRecord
 10
0.0
 20
0.0
 30
0.0
 70
   128
 71
    -1
 72
     2
 73
     3
  0
VERTEX
  5
36F
330
369
100
AcDbEntity
  8
0
 62
     0
100
AcDbFaceRecord
 10
0.0
 20
0.0
 30
0.0
 70
   128
 71
    -2
 72
     1
 73
     4
  0
SEQEND
  5
370
330
369
100
AcDbEntity
  8
0
 62
     0
  0
LINE
  5
371
330
1F
100
AcDbEntity
  8
0
 62
     0
100
AcDbLine
 10
137.5000000000011
 20
4.50000000000006
 30
108.0000000000007
 11
69.75000000000084
 21
4.50000000000006
 31
108.0000000000007
  0
LINE
  5
372
330
1F
100
AcDbEntity
  8
0
 62
     0
100
AcDbLine
 10
137.5000000000006
 20
0.000000000000723
 30
107.9999999999994
 11
137.5000000000011
 21
4.50000000000006
 31
108.0000000000007
  0
LINE
  5
373
330
1F
100
AcDbEntity
  8
0
 62
     0
100
AcDbLine
 10
137.5000000000006
 20
0.000000000000723
 30
107.9999999999994
 11
69.75000000000084
 21
0.000000000000361
 31
108.0000000000007
  0
LINE
  5
374
330
1F
100
AcDbEntity
  8
0
 62
     0
100
AcDbLine
 10
69.75000000000084
 20
0.000000000000361
 30
108.0000000000007
 11
69.75000000000084
 21
4.50000000000006
 31
108.0000000000007
  0
POLYLINE
  5
375
330
1F
100
AcDbEntity
  8
0
 62
     0
100
AcDbPolyFaceMesh
 66
     1
 10
0.0
 20
0.0
 30
0.0
 70
    64
 71
     8
 72
     8
1001
ACAD_MATERIAL_MAPPER
1070
     1
1070
     1
1070
     1
1011
0.000000000000111
1021
0.0
1031
-0.0000000000000017
1011
-2.539999999999889
1021
0.0
1031
-0.0000000000000017
1011
0.0000000000001231
1021
0.0
1031
2.539999999999997
1011
0.000000000000111
1021
1.0
1031
-0.0000000000000017
  0
VERTEX
  5
376
330
375
100
AcDbEntity
  8
0
 62
     0
100
AcDbVertex
100
AcDbPolyFaceMeshVertex
 10
73.3500000000011
 20
1.700000000000335
 30
5.600000000000719
 70
   192
  0
VERTEX
  5
377
330
375
100
AcDbEntity
  8
0
 62
     0
100
AcDbVertex
100
AcDbPolyFaceMeshVertex
 10
74.2500000000009
 20
1.700000000000335
 30
6.500000000000719
 70
   192
  0
VERTEX
  5
378
330
375
100
AcDbEntity
  8
0
 62
     0
100
AcDbVertex
100
AcDbPolyFaceMeshVertex
 10
133.000000000001
 20
1.700000000000336
 30
6.500000000000718
 70
   192
  0
VERTEX
  5
379
330
375
100
AcDbEntity
  8
0
 62
     0
100
AcDbVertex
100
AcDbPolyFaceMeshVertex
 10
73.35000000000109
 20
1.700000000000335
 30
104.4000000000004
 70
   192
  0
VERTEX
  5
37A
330
375
100
AcDbEntity
  8
0
 62
     0
100
AcDbVertex
100
AcDbPolyFaceMeshVertex
 10
74.2500000000009
 20
1.700000000000335
 30
103.5000000000006
 70
   192
  0
VERTEX
  5
37B
330
375
100
AcDbEntity
  8
0
 62
     0
100
AcDbVertex
100
AcDbPolyFaceMeshVertex
 10
133.9000000000007
 20
1.70000000000048
 30
104.4000000000004
 70
   192
  0
VERTEX
  5
37C
330
375
100
AcDbEntity
  8
0
 62
     0
100
AcDbVertex
100
AcDbPolyFaceMeshVertex
 10
133.9000000000008
 20
1.70000000000048
 30
5.600000000000713
 70
   192
  0
VERTEX
  5
37D
330
375
100
AcDbEntity
  8
0
 62
     0
100
AcDbVertex
100
AcDbPolyFaceMeshVertex
 10
133.0000000000009
 20
1.700000000000336
 30
103.5000000000006
 70
   192
  0
VERTEX
  5
37E
330
375
100
AcDbEntity
  8
0
 62
     0
100
AcDbFaceRecord
 10
0.0
 20
0.0
 30
0.0
 70
   128
 71
    -1
 72
     2
 73
    -3
  0
VERTEX
  5
37F
330
375
100
AcDbEntity
  8
0
 62
     0
100
AcDbFaceRecord
 10
0.0
 20
0.0
 30
0.0
 70
   128
 71
    -2
 72
     1
 73
    -4
  0
VERTEX
  5
380
330
375
100
AcDbEntity
  8
0
 62
     0
100
AcDbFaceRecord
 10
0.0
 20
0.0
 30
0.0
 70
   128
 71
    -2
 72
    -4
 73
     5
  0
VERTEX
  5
381
330
375
100
AcDbEntity
  8
0
 62
     0
100
AcDbFaceRecord
 10
0.0
 20
0.0
 30
0.0
 70
   128
 71
    -5
 72
     4
 73
    -6
  0
VERTEX
  5
382
330
375
100
AcDbEntity
  8
0
 62
     0
100
AcDbFaceRecord
 10
0.0
 20
0.0
 30
0.0
 70
   128
 71
    -7
 72
    -3
 73
     6
  0
VERTEX
  5
383
330
375
100
AcDbEntity
  8
0
 62
     0
100
AcDbFaceRecord
 10
0.0
 20
0.0
 30
0.0
 70
   128
 71
    -3
 72
     7
 73
    -1
  0
VERTEX
  5
384
330
375
100
AcDbEntity
  8
0
 62
     0
100
AcDbFaceRecord
 10
0.0
 20
0.0
 30
0.0
 70
   128
 71
    -6
 72
     3
 73
    -8
  0
VERTEX
  5
385
330
375
100
AcDbEntity
  8
0
 62
     0
100
AcDbFaceRecord
 10
0.0
 20
0.0
 30
0.0
 70
   128
 71
    -6
 72
     8
 73
    -5
  0
SEQEND
  5
386
330
375
100
AcDbEntity
  8
0
 62
     0
  0
LINE
  5
387
330
1F
100
AcDbEntity
  8
0
 62
     0
100
AcDbLine
 10
73.35000000000109
 20
1.700000000000335
 30
104.4000000000004
 11
133.9000000000007
 21
1.70000000000048
 31
104.4000000000004
  0
LINE
  5
388
330
1F
100
AcDbEntity
  8
0
 62
     0
100
AcDbLine
 10
133.9000000000008
 20
1.70000000000048
 30
5.600000000000713
 11
133.9000000000007
 21
1.70000000000048
 31
104.4000000000004
  0
LINE
  5
389
330
1F
100
AcDbEntity
  8
0
 62
     0
100
AcDbLine
 10
133.9000000000008
 20
1.70000000000048
 30
5.600000000000713
 11
73.3500000000011
 21
1.700000000000335
 31
5.600000000000719
  0
LINE
  5
38A
330
1F
100
AcDbEntity
  8
0
 62
     0
100
AcDbLine
 10
73.3500000000011
 20
1.700000000000335
 30
5.600000000000719
 11
73.35000000000109
 21
1.700000000000335
 31
104.4000000000004
  0
LINE
  5
38B
330
1F
100
AcDbEntity
  8
0
 62
     0
100
AcDbLine
 10
133.000000000001
 20
1.700000000000336
 30
6.500000000000718
 11
133.0000000000009
 21
1.700000000000336
 31
103.5000000000006
  0
LINE
  5
38C
330
1F
100
AcDbEntity
  8
0
 62
     0
100
AcDbLine
 10
74.2500000000009
 20
1.700000000000335
 30
103.5000000000006
 11
133.0000000000009
 21
1.700000000000336
 31
103.5000000000006
  0
LINE
  5
38D
330
1F
100
AcDbEntity
  8
0
 62
     0
100
AcDbLine
 10
74.2500000000009
 20
1.700000000000335
 30
6.500000000000719
 11
74.2500000000009
 21
1.700000000000335
 31
103.5000000000006
  0
LINE
  5
38E
330
1F
100
AcDbEntity
  8
0
 62
     0
100
AcDbLine
 10
133.000000000001
 20
1.700000000000336
 30
6.500000000000718
 11
74.2500000000009
 21
1.700000000000335
 31
6.500000000000719
  0
POLYLINE
  5
38F
330
1F
100
AcDbEntity
  8
0
 62
    33
100
AcDbPolyFaceMesh
 66
     1
 10
0.0
 20
0.0
 30
0.0
 70
    64
 71
     4
 72
     2
1001
ACAD_MATERIAL_MAPPER
1070
     1
1070
     1
1070
     1
1011
0.0000000000000283
1021
0.0000000000000006
1031
0.0
1011
-239.9999999999999
1021
0.0000000000000006
1031
0.0
1011
0.0000000000000283
1021
240.0
1031
0.0
1011
0.0000000000000283
1021
0.0000000000000006
1031
1.0
  0
VERTEX
  5
390
330
38F
100
AcDbEntity
  8
0
 62
    33
100
AcDbVertex
100
AcDbPolyFaceMeshVertex
 10
133.9000000000007
 20
4.500000000000204
 30
104.4000000000004
 70
   192
  0
VERTEX
  5
391
330
38F
100
AcDbEntity
  8
0
 62
    33
100
AcDbVertex
100
AcDbPolyFaceMeshVertex
 10
73.35000000000109
 20
1.700000000000335
 30
104.4000000000004
 70
   192
  0
VERTEX
  5
392
330
38F
100
AcDbEntity
  8
0
 62
    33
100
AcDbVertex
100
AcDbPolyFaceMeshVertex
 10
73.35000000000109
 20
4.50000000000006
 30
104.4000000000004
 70
   192
  0
VERTEX
  5
393
330
38F
100
AcDbEntity
  8
0
 62
    33
100
AcDbVertex
100
AcDbPolyFaceMeshVertex
 10
133.9000000000007
 20
1.70000000000048
 30
104.4000000000004
 70
   192
  0
VERTEX
  5
394
330
38F
100
AcDbEntity
  8
0
 62
    33
100
AcDbFaceRecord
 10
0.0
 20
0.0
 30
0.0
 70
   128
 71
    -1
 72
     2
 73
     3
  0
VERTEX
  5
395
330
38F
100
AcDbEntity
  8
0
 62
    33
100
AcDbFaceRecord
 10
0.0
 20
0.0
 30
0.0
 70
   128
 71
    -2
 72
     1
 73
     4
  0
SEQEND
  5
396
330
38F
100
AcDbEntity
  8
0
 62
    33
  0
LINE
  5
397
330
1F
100
AcDbEntity
  8
0
 62
     0
100
AcDbLine
 10
73.35000000000109
 20
1.700000000000335
 30
104.4000000000004
 11
133.9000000000007
 21
1.70000000000048
 31
104.4000000000004
  0
LINE
  5
398
330
1F
100
AcDbEntity
  8
0
 62
     0
100
AcDbLine
 10
73.35000000000109
 20
4.50000000000006
 30
104.4000000000004
 11
73.35000000000109
 21
1.700000000000335
 31
104.4000000000004
  0
LINE
  5
399
330
1F
100
AcDbEntity
  8
0
 62
     0
100
AcDbLine
 10
73.35000000000109
 20
4.50000000000006
 30
104.4000000000004
 11
133.9000000000007
 21
4.500000000000204
 31
104.4000000000004
  0
LINE
  5
39A
330
1F
100
AcDbEntity
  8
0
 62
     0
100
AcDbLine
 10
133.9000000000007
 20
4.500000000000204
 30
104.4000000000004
 11
133.9000000000007
 21
1.70000000000048
 31
104.4000000000004
  0
POLYLINE
  5
39B
330
1F
100
AcDbEntity
  8
0
 62
    33
100
AcDbPolyFaceMesh
 66
     1
 10
0.0
 20
0.0
 30
0.0
 70
    64
 71
     4
 72
     2
1001
ACAD_MATERIAL_MAPPER
1070
     1
1070
     1
1070
     1
1011
0.000000000000016
1021
-0.0000000000000003
1031
0.0
1011
-240.0
1021
-0.0000000000000003
1031
0.0
1011
0.000000000000016
1021
240.0
1031
0.0
1011
0.000000000000016
1021
-0.0000000000000003
1031
1.0
  0
VERTEX
  5
39C
330
39B
100
AcDbEntity
  8
0
 62
    33
100
AcDbVertex
100
AcDbPolyFaceMeshVertex
 10
133.0000000000009
 20
1.700000000000336
 30
103.5000000000006
 70
   192
  0
VERTEX
  5
39D
330
39B
100
AcDbEntity
  8
0
 62
    33
100
AcDbVertex
100
AcDbPolyFaceMeshVertex
 10
74.2500000000009
 20
0.000000000000361
 30
103.5000000000006
 70
   192
  0
VERTEX
  5
39E
330
39B
100
AcDbEntity
  8
0
 62
    33
100
AcDbVertex
100
AcDbPolyFaceMeshVertex
 10
74.2500000000009
 20
1.700000000000335
 30
103.5000000000006
 70
   192
  0
VERTEX
  5
39F
330
39B
100
AcDbEntity
  8
0
 62
    33
100
AcDbVertex
100
AcDbPolyFaceMeshVertex
 10
133.0000000000009
 20
0.0000000000003621
 30
103.5000000000006
 70
   192
  0
VERTEX
  5
3A0
330
39B
100
AcDbEntity
  8
0
 62
    33
100
AcDbFaceRecord
 10
0.0
 20
0.0
 30
0.0
 70
   128
 71
    -1
 72
     2
 73
     3
  0
VERTEX
  5
3A1
330
39B
100
AcDbEntity
  8
0
 62
    33
100
AcDbFaceRecord
 10
0.0
 20
0.0
 30
0.0
 70
   128
 71
    -2
 72
     1
 73
     4
  0
SEQEND
  5
3A2
330
39B
100
AcDbEntity
  8
0
 62
    33
  0
LINE
  5
3A3
330
1F
100
AcDbEntity
  8
0
 62
     0
100
AcDbLine
 10
74.2500000000009
 20
1.700000000000335
 30
103.5000000000006
 11
74.2500000000009
 21
0.000000000000361
 31
103.5000000000006
  0
LINE
  5
3A4
330
1F
100
AcDbEntity
  8
0
 62
     0
100
AcDbLine
 10
74.2500000000009
 20
1.700000000000335
 30
103.5000000000006
 11
133.0000000000009
 21
1.700000000000336
 31
103.5000000000006
  0
LINE
  5
3A5
330
1F
100
AcDbEntity
  8
0
 62
     0
100
AcDbLine
 10
133.0000000000009
 20
1.700000000000336
 30
103.5000000000006
 11
133.0000000000009
 21
0.0000000000003621
 31
103.5000000000006
  0
LINE
  5
3A6
330
1F
100
AcDbEntity
  8
0
 62
     0
100
AcDbLine
 10
74.2500000000009
 20
0.000000000000361
 30
103.5000000000006
 11
133.0000000000009
 21
0.0000000000003621
 31
103.5000000000006
  0
POLYLINE
  5
3A7
330
1F
100
AcDbEntity
  8
0
 62
    33
100
AcDbPolyFaceMesh
 66
     1
 10
0.0
 20
0.0
 30
0.0
 70
    64
 71
     4
 72
     2
1001
ACAD_MATERIAL_MAPPER
1070
     1
1070
     1
1070
     1
1011
0.0
1021
-0.0000000000000004
1031
-0.0000000000000014
1011
0.0
1021
240.0
1031
-0.0000000000000014
1011
0.0
1021
-0.0000000000000004
1031
240.0
1011
1.0
1021
-0.0000000000000004
1031
-0.0000000000000014
  0
VERTEX
  5
3A8
330
3A7
100
AcDbEntity
  8
0
 62
    33
100
AcDbVertex
100
AcDbPolyFaceMeshVertex
 10
5.600000000000888
 20
4.50000000000006
 30
5.600000000000719
 70
   192
  0
VERTEX
  5
3A9
330
3A7
100
AcDbEntity
  8
0
 62
    33
100
AcDbVertex
100
AcDbPolyFaceMeshVertex
 10
5.60000000000087
 20
1.700000000000335
 30
104.4000000000004
 70
   192
  0
VERTEX
  5
3AA
330
3A7
100
AcDbEntity
  8
0
 62
    33
100
AcDbVertex
100
AcDbPolyFaceMeshVertex
 10
5.600000000000888
 20
1.700000000000335
 30
5.600000000000719
 70
   192
  0
VERTEX
  5
3AB
330
3A7
100
AcDbEntity
  8
0
 62
    33
100
AcDbVertex
100
AcDbPolyFaceMeshVertex
 10
5.60000000000087
 20
4.50000000000006
 30
104.4000000000004
 70
   192
  0
VERTEX
  5
3AC
330
3A7
100
AcDbEntity
  8
0
 62
    33
100
AcDbFaceRecord
 10
0.0
 20
0.0
 30
0.0
 70
   128
 71
    -1
 72
     2
 73
     3
  0
VERTEX
  5
3AD
330
3A7
100
AcDbEntity
  8
0
 62
    33
100
AcDbFaceRecord
 10
0.0
 20
0.0
 30
0.0
 70
   128
 71
    -2
 72
     1
 73
     4
  0
SEQEND
  5
3AE
330
3A7
100
AcDbEntity
  8
0
 62
    33
  0
LINE
  5
3AF
330
1F
100
AcDbEntity
  8
0
 62
     0
100
AcDbLine
 10
5.600000000000888
 20
1.700000000000335
 30
5.600000000000719
 11
5.60000000000087
 21
1.700000000000335
 31
104.4000000000004
  0
LINE
  5
3B0
330
1F
100
AcDbEntity
  8
0
 62
     0
100
AcDbLine
 10
5.600000000000888
 20
4.50000000000006
 30
5.600000000000719
 11
5.600000000000888
 21
1.700000000000335
 31
5.600000000000719
  0
LINE
  5
3B1
330
1F
100
AcDbEntity
  8
0
 62
     0
100
AcDbLine
 10
5.600000000000888
 20
4.50000000000006
 30
5.600000000000719
 11
5.60000000000087
 21
4.50000000000006
 31
104.4000000000004
  0
LINE
  5
3B2
330
1F
100
AcDbEntity
  8
0
 62
     0
100
AcDbLine
 10
5.60000000000087
 20
4.50000000000006
 30
104.4000000000004
 11
5.60000000000087
 21
1.700000000000335
 31
104.4000000000004
  0
POLYLINE
  5
3B3
330
1F
100
AcDbEntity
  8
0
 62
     0
100
AcDbPolyFaceMesh
 66
     1
 10
0.0
 20
0.0
 30
0.0
 70
    64
 71
     4
 72
     2
1001
ACAD_MATERIAL_MAPPER
1070
     1
1070
     1
1070
     1
1011
-0.0000000000000003
1021
-0.0000000000000001
1031
0.0
1011
2.54
1021
-0.0000000000000001
1031
0.0
1011
-0.0000000000000003
1021
2.539999999999999
1031
0.0
1011
-0.0000000000000003
1021
-0.0000000000000001
1031
1.0
  0
VERTEX
  5
3B4
330
3B3
100
AcDbEntity
  8
0
 62
     0
100
AcDbVertex
100
AcDbPolyFaceMeshVertex
 10
69.75000000000084
 20
0.000000000000361
 30
2.000000000000719
 70
   192
  0
VERTEX
  5
3B5
330
3B3
100
AcDbEntity
  8
0
 62
     0
100
AcDbVertex
100
AcDbPolyFaceMeshVertex
 10
2.000000000000624
 20
4.50000000000006
 30
2.000000000000719
 70
   192
  0
VERTEX
  5
3B6
330
3B3
100
AcDbEntity
  8
0
 62
     0
100
AcDbVertex
100
AcDbPolyFaceMeshVertex
 10
2.000000000000624
 20
0.000000000000361
 30
2.000000000000718
 70
   192
  0
VERTEX
  5
3B7
330
3B3
100
AcDbEntity
  8
0
 62
     0
100
AcDbVertex
100
AcDbPolyFaceMeshVertex
 10
69.75000000000084
 20
4.50000000000006
 30
2.000000000000719
 70
   192
  0
VERTEX
  5
3B8
330
3B3
100
AcDbEntity
  8
0
 62
     0
100
AcDbFaceRecord
 10
0.0
 20
0.0
 30
0.0
 70
   128
 71
    -1
 72
     2
 73
     3
  0
VERTEX
  5
3B9
330
3B3
100
AcDbEntity
  8
0
 62
     0
100
AcDbFaceRecord
 10
0.0
 20
0.0
 30
0.0
 70
   128
 71
    -2
 72
     1
 73
     4
  0
SEQEND
  5
3BA
330
3B3
100
AcDbEntity
  8
0
 62
     0
  0
LINE
  5
3BB
330
1F
100
AcDbEntity
  8
0
 62
     0
100
AcDbLine
 10
2.000000000000624
 20
4.50000000000006
 30
2.000000000000719
 11
69.75000000000084
 21
4.50000000000006
 31
2.000000000000719
  0
LINE
  5
3BC
330
1F
100
AcDbEntity
  8
0
 62
     0
100
AcDbLine
 10
2.000000000000624
 20
4.50000000000006
 30
2.000000000000719
 11
2.000000000000624
 21
0.000000000000361
 31
2.000000000000718
  0
LINE
  5
3BD
330
1F
100
AcDbEntity
  8
0
 62
     0
100
AcDbLine
 10
69.75000000000084
 20
0.000000000000361
 30
2.000000000000719
 11
2.000000000000624
 21
0.000000000000361
 31
2.000000000000718
  0
LINE
  5
3BE
330
1F
100
AcDbEntity
  8
0
 62
     0
100
AcDbLine
 10
69.75000000000084
 20
0.000000000000361
 30
2.000000000000719
 11
69.75000000000084
 21
4.50000000000006
 31
2.000000000000719
  0
POLYLINE
  5
3BF
330
1F
100
AcDbEntity
  8
0
 62
    33
100
AcDbPolyFaceMesh
 66
     1
 10
0.0
 20
0.0
 30
0.0
 70
    64
 71
     4
 72
     2
1001
ACAD_MATERIAL_MAPPER
1070
     1
1070
     1
1070
     1
1011
0.0
1021
0.0
1031
0.0000000000000012
1011
0.0
1021
240.0
1031
0.0000000000000012
1011
0.0
1021
0.0
1031
240.0000000000001
1011
1.0
1021
0.0
1031
0.0000000000000012
  0
VERTEX
  5
3C0
330
3BF
100
AcDbEntity
  8
0
 62
    33
100
AcDbVertex
100
AcDbPolyFaceMeshVertex
 10
6.500000000000683
 20
1.700000000000335
 30
6.500000000000719
 70
   192
  0
VERTEX
  5
3C1
330
3BF
100
AcDbEntity
  8
0
 62
    33
100
AcDbVertex
100
AcDbPolyFaceMeshVertex
 10
6.500000000000683
 20
0.000000000000361
 30
103.5000000000006
 70
   192
  0
VERTEX
  5
3C2
330
3BF
100
AcDbEntity
  8
0
 62
    33
100
AcDbVertex
100
AcDbPolyFaceMeshVertex
 10
6.500000000000683
 20
0.000000000000361
 30
6.500000000000719
 70
   192
  0
VERTEX
  5
3C3
330
3BF
100
AcDbEntity
  8
0
 62
    33
100
AcDbVertex
100
AcDbPolyFaceMeshVertex
 10
6.500000000000683
 20
1.700000000000335
 30
103.5000000000006
 70
   192
  0
VERTEX
  5
3C4
330
3BF
100
AcDbEntity
  8
0
 62
    33
100
AcDbFaceRecord
 10
0.0
 20
0.0
 30
0.0
 70
   128
 71
    -1
 72
     2
 73
     3
  0
VERTEX
  5
3C5
330
3BF
100
AcDbEntity
  8
0
 62
    33
100
AcDbFaceRecord
 10
0.0
 20
0.0
 30
0.0
 70
   128
 71
    -2
 72
     1
 73
     4
  0
SEQEND
  5
3C6
330
3BF
100
AcDbEntity
  8
0
 62
    33
  0
LINE
  5
3C7
330
1F
100
AcDbEntity
  8
0
 62
     0
100
AcDbLine
 10
6.500000000000683
 20
0.000000000000361
 30
6.500000000000719
 11
6.500000000000683
 21
0.000000000000361
 31
103.5000000000006
  0
LINE
  5
3C8
330
1F
100
AcDbEntity
  8
0
 62
     0
100
AcDbLine
 10
6.500000000000683
 20
0.000000000000361
 30
6.500000000000719
 11
6.500000000000683
 21
1.700000000000335
 31
6.500000000000719
  0
LINE
  5
3C9
330
1F
100
AcDbEntity
  8
0
 62
     0
100
AcDbLine
 10
6.500000000000683
 20
1.700000000000335
 30
6.500000000000719
 11
6.500000000000683
 21
1.700000000000335
 31
103.5000000000006
  0
LINE
  5
3CA
330
1F
100
AcDbEntity
  8
0
 62
     0
100
AcDbLine
 10
6.500000000000683
 20
1.700000000000335
 30
103.5000000000006
 11
6.500000000000683
 21
0.000000000000361
 31
103.5000000000006
  0
POLYLINE
  5
3CB
330
1F
100
AcDbEntity
  8
0
 62
     0
100
AcDbPolyFaceMesh
 66
     1
 10
0.0
 20
0.0
 30
0.0
 70
    64
 71
     4
 72
     2
1001
ACAD_MATERIAL_MAPPER
1070
     1
1070
     1
1070
     1
1011
0.0
1021
0.0
1031
0.0000000000000004
1011
0.0
1021
2.54
1031
0.0000000000000004
1011
0.0
1021
0.0
1031
2.54
1011
1.0
1021
0.0
1031
0.0000000000000004
  0
VERTEX
  5
3CC
330
3CB
100
AcDbEntity
  8
0
 62
     0
100
AcDbVertex
100
AcDbPolyFaceMeshVertex
 10
2.000000000000624
 20
4.50000000000006
 30
2.000000000000719
 70
   192
  0
VERTEX
  5
3CD
330
3CB
100
AcDbEntity
  8
0
 62
     0
100
AcDbVertex
100
AcDbPolyFaceMeshVertex
 10
2.000000000000624
 20
0.0000000000007219
 30
107.9999999999995
 70
   192
  0
VERTEX
  5
3CE
330
3CB
100
AcDbEntity
  8
0
 62
     0
100
AcDbVertex
100
AcDbPolyFaceMeshVertex
 10
2.000000000000624
 20
0.000000000000361
 30
2.000000000000718
 70
   192
  0
VERTEX
  5
3CF
330
3CB
100
AcDbEntity
  8
0
 62
     0
100
AcDbVertex
100
AcDbPolyFaceMeshVertex
 10
2.000000000000624
 20
4.50000000000006
 30
108.0000000000007
 70
   192
  0
VERTEX
  5
3D0
330
3CB
100
AcDbEntity
  8
0
 62
     0
100
AcDbFaceRecord
 10
0.0
 20
0.0
 30
0.0
 70
   128
 71
    -1
 72
     2
 73
     3
  0
VERTEX
  5
3D1
330
3CB
100
AcDbEntity
  8
0
 62
     0
100
AcDbFaceRecord
 10
0.0
 20
0.0
 30
0.0
 70
   128
 71
    -2
 72
     1
 73
     4
  0
SEQEND
  5
3D2
330
3CB
100
AcDbEntity
  8
0
 62
     0
  0
LINE
  5
3D3
330
1F
100
AcDbEntity
  8
0
 62
     0
100
AcDbLine
 10
2.000000000000624
 20
4.50000000000006
 30
2.000000000000719
 11
2.000000000000624
 21
0.000000000000361
 31
2.000000000000718
  0
LINE
  5
3D4
330
1F
100
AcDbEntity
  8
0
 62
     0
100
AcDbLine
 10
2.000000000000624
 20
4.50000000000006
 30
2.000000000000719
 11
2.000000000000624
 21
4.50000000000006
 31
108.0000000000007
  0
LINE
  5
3D5
330
1F
100
AcDbEntity
  8
0
 62
     0
100
AcDbLine
 10
2.000000000000624
 20
0.0000000000007219
 30
107.9999999999995
 11
2.000000000000624
 21
4.50000000000006
 31
108.0000000000007
  0
LINE
  5
3D6
330
1F
100
AcDbEntity
  8
0
 62
     0
100
AcDbLine
 10
2.000000000000624
 20
0.000000000000361
 30
2.000000000000718
 11
2.000000000000624
 21
0.0000000000007219
 31
107.9999999999995
  0
POLYLINE
  5
3D7
330
1F
100
AcDbEntity
  8
0
 62
    33
100
AcDbPolyFaceMesh
 66
     1
 10
0.0
 20
0.0
 30
0.0
 70
    64
 71
     4
 72
     2
1001
ACAD_MATERIAL_MAPPER
1070
     1
1070
     1
1070
     1
1011
0.0
1021
-0.0000000000000006
1031
0.0
1011
240.0
1021
-0.0000000000000006
1031
0.0
1011
0.0
1021
240.0
1031
0.0
1011
0.0
1021
-0.0000000000000006
1031
1.0
  0
VERTEX
  5
3D8
330
3D7
100
AcDbEntity
  8
0
 62
    33
100
AcDbVertex
100
AcDbPolyFaceMeshVertex
 10
66.15000000000057
 20
1.70000000000048
 30
5.600000000000713
 70
   192
  0
VERTEX
  5
3D9
330
3D7
100
AcDbEntity
  8
0
 62
    33
100
AcDbVertex
100
AcDbPolyFaceMeshVertex
 10
5.600000000000888
 20
4.50000000000006
 30
5.600000000000719
 70
   192
  0
VERTEX
  5
3DA
330
3D7
100
AcDbEntity
  8
0
 62
    33
100
AcDbVertex
100
AcDbPolyFaceMeshVertex
 10
5.600000000000888
 20
1.700000000000335
 30
5.600000000000719
 70
   192
  0
VERTEX
  5
3DB
330
3D7
100
AcDbEntity
  8
0
 62
    33
100
AcDbVertex
100
AcDbPolyFaceMeshVertex
 10
66.1500000000013
 20
4.500000000000204
 30
5.600000000000713
 70
   192
  0
VERTEX
  5
3DC
330
3D7
100
AcDbEntity
  8
0
 62
    33
100
AcDbFaceRecord
 10
0.0
 20
0.0
 30
0.0
 70
   128
 71
    -1
 72
     2
 73
     3
  0
VERTEX
  5
3DD
330
3D7
100
AcDbEntity
  8
0
 62
    33
100
AcDbFaceRecord
 10
0.0
 20
0.0
 30
0.0
 70
   128
 71
    -2
 72
     1
 73
     4
  0
SEQEND
  5
3DE
330
3D7
100
AcDbEntity
  8
0
 62
    33
  0
LINE
  5
3DF
330
1F
100
AcDbEntity
  8
0
 62
     0
100
AcDbLine
 10
5.600000000000888
 20
4.50000000000006
 30
5.600000000000719
 11
66.1500000000013
 21
4.500000000000204
 31
5.600000000000713
  0
LINE
  5
3E0
330
1F
100
AcDbEntity
  8
0
 62
     0
100
AcDbLine
 10
5.600000000000888
 20
4.50000000000006
 30
5.600000000000719
 11
5.600000000000888
 21
1.700000000000335
 31
5.600000000000719
  0
LINE
  5
3E1
330
1F
100
AcDbEntity
  8
0
 62
     0
100
AcDbLine
 10
66.15000000000057
 20
1.70000000000048
 30
5.600000000000713
 11
5.600000000000888
 21
1.700000000000335
 31
5.600000000000719
  0
LINE
  5
3E2
330
1F
100
AcDbEntity
  8
0
 62
     0
100
AcDbLine
 10
66.1500000000013
 20
4.500000000000204
 30
5.600000000000713
 11
66.15000000000057
 21
1.70000000000048
 31
5.600000000000713
  0
POLYLINE
  5
3E3
330
1F
100
AcDbEntity
  8
0
 62
    33
100
AcDbPolyFaceMesh
 66
     1
 10
0.0
 20
0.0
 30
0.0
 70
    64
 71
     4
 72
     2
1001
ACAD_MATERIAL_MAPPER
1070
     1
1070
     1
1070
     1
1011
0.0
1021
0.0
1031
0.0
1011
240.0
1021
0.0
1031
0.0
1011
0.0
1021
240.0
1031
0.0
1011
0.0
1021
0.0
1031
1.0
  0
VERTEX
  5
3E4
330
3E3
100
AcDbEntity
  8
0
 62
    33
100
AcDbVertex
100
AcDbPolyFaceMeshVertex
 10
65.25000000000078
 20
0.000000000000361
 30
6.500000000000718
 70
   192
  0
VERTEX
  5
3E5
330
3E3
100
AcDbEntity
  8
0
 62
    33
100
AcDbVertex
100
AcDbPolyFaceMeshVertex
 10
6.500000000000683
 20
1.700000000000335
 30
6.500000000000719
 70
   192
  0
VERTEX
  5
3E6
330
3E3
100
AcDbEntity
  8
0
 62
    33
100
AcDbVertex
100
AcDbPolyFaceMeshVertex
 10
6.500000000000683
 20
0.000000000000361
 30
6.500000000000719
 70
   192
  0
VERTEX
  5
3E7
330
3E3
100
AcDbEntity
  8
0
 62
    33
100
AcDbVertex
100
AcDbPolyFaceMeshVertex
 10
65.25000000000078
 20
1.700000000000335
 30
6.500000000000718
 70
   192
  0
VERTEX
  5
3E8
330
3E3
100
AcDbEntity
  8
0
 62
    33
100
AcDbFaceRecord
 10
0.0
 20
0.0
 30
0.0
 70
   128
 71
    -1
 72
     2
 73
     3
  0
VERTEX
  5
3E9
330
3E3
100
AcDbEntity
  8
0
 62
    33
100
AcDbFaceRecord
 10
0.0
 20
0.0
 30
0.0
 70
   128
 71
    -2
 72
     1
 73
     4
  0
SEQEND
  5
3EA
330
3E3
100
AcDbEntity
  8
0
 62
    33
  0
LINE
  5
3EB
330
1F
100
AcDbEntity
  8
0
 62
     0
100
AcDbLine
 10
65.25000000000078
 20
1.700000000000335
 30
6.500000000000718
 11
65.25000000000078
 21
0.000000000000361
 31
6.500000000000718
  0
LINE
  5
3EC
330
1F
100
AcDbEntity
  8
0
 62
     0
100
AcDbLine
 10
65.25000000000078
 20
1.700000000000335
 30
6.500000000000718
 11
6.500000000000683
 21
1.700000000000335
 31
6.500000000000719
  0
LINE
  5
3ED
330
1F
100
AcDbEntity
  8
0
 62
     0
100
AcDbLine
 10
6.500000000000683
 20
0.000000000000361
 30
6.500000000000719
 11
6.500000000000683
 21
1.700000000000335
 31
6.500000000000719
  0
LINE
  5
3EE
330
1F
100
AcDbEntity
  8
0
 62
     0
100
AcDbLine
 10
65.25000000000078
 20
0.000000000000361
 30
6.500000000000718
 11
6.500000000000683
 21
0.000000000000361
 31
6.500000000000719
  0
POLYLINE
  5
3EF
330
1F
100
AcDbEntity
  8
0
 62
    33
100
AcDbPolyFaceMesh
 66
     1
 10
0.0
 20
0.0
 30
0.0
 70
    64
 71
     4
 72
     2
1001
ACAD_MATERIAL_MAPPER
1070
     1
1070
     1
1070
     1
1011
0.0
1021
-0.0000000000085274
1031
0.0000000000002774
1011
0.0
1021
-240.0000000000085
1031
0.0000000000002774
1011
0.0
1021
-0.0000000000085274
1031
240.0000000000003
1011
1.0
1021
-0.0000000000085274
1031
0.0000000000002774
  0
VERTEX
  5
3F0
330
3EF
100
AcDbEntity
  8
0
 62
    33
100
AcDbVertex
100
AcDbPolyFaceMeshVertex
 10
66.1500000000005
 20
4.500000000000204
 30
104.4000000000004
 70
   192
  0
VERTEX
  5
3F1
330
3EF
100
AcDbEntity
  8
0
 62
    33
100
AcDbVertex
100
AcDbPolyFaceMeshVertex
 10
66.15000000000057
 20
1.70000000000048
 30
5.600000000000713
 70
   192
  0
VERTEX
  5
3F2
330
3EF
100
AcDbEntity
  8
0
 62
    33
100
AcDbVertex
100
AcDbPolyFaceMeshVertex
 10
66.1500000000005
 20
1.70000000000048
 30
104.4000000000004
 70
   192
  0
VERTEX
  5
3F3
330
3EF
100
AcDbEntity
  8
0
 62
    33
100
AcDbVertex
100
AcDbPolyFaceMeshVertex
 10
66.1500000000013
 20
4.500000000000204
 30
5.600000000000713
 70
   192
  0
VERTEX
  5
3F4
330
3EF
100
AcDbEntity
  8
0
 62
    33
100
AcDbFaceRecord
 10
0.0
 20
0.0
 30
0.0
 70
   128
 71
    -1
 72
     2
 73
     3
  0
VERTEX
  5
3F5
330
3EF
100
AcDbEntity
  8
0
 62
    33
100
AcDbFaceRecord
 10
0.0
 20
0.0
 30
0.0
 70
   128
 71
    -2
 72
     1
 73
     4
  0
SEQEND
  5
3F6
330
3EF
100
AcDbEntity
  8
0
 62
    33
  0
LINE
  5
3F7
330
1F
100
AcDbEntity
  8
0
 62
     0
100
AcDbLine
 10
66.15000000000057
 20
1.70000000000048
 30
5.600000000000713
 11
66.1500000000005
 21
1.70000000000048
 31
104.4000000000004
  0
LINE
  5
3F8
330
1F
100
AcDbEntity
  8
0
 62
     0
100
AcDbLine
 10
66.1500000000005
 20
4.500000000000204
 30
104.4000000000004
 11
66.1500000000005
 21
1.70000000000048
 31
104.4000000000004
  0
LINE
  5
3F9
330
1F
100
AcDbEntity
  8
0
 62
     0
100
AcDbLine
 10
66.1500000000013
 20
4.500000000000204
 30
5.600000000000713
 11
66.1500000000005
 21
4.500000000000204
 31
104.4000000000004
  0
LINE
  5
3FA
330
1F
100
AcDbEntity
  8
0
 62
     0
100
AcDbLine
 10
66.1500000000013
 20
4.500000000000204
 30
5.600000000000713
 11
66.15000000000057
 21
1.70000000000048
 31
5.600000000000713
  0
POLYLINE
  5
3FB
330
1F
100
AcDbEntity
  8
0
 62
    33
100
AcDbPolyFaceMesh
 66
     1
 10
0.0
 20
0.0
 30
0.0
 70
    64
 71
     8
 72
     8
1001
ACAD_MATERIAL_MAPPER
1070
     1
1070
     1
1070
     1
1011
-0.0000000000000004
1021
0.0
1031
-0.0000000000000002
1011
-240.0
1021
0.0
1031
-0.0000000000000002
1011
-0.0000000000000004
1021
0.0
1031
240.0000000000001
1011
-0.0000000000000004
1021
1.0
1031
-0.0000000000000002
  0
VERTEX
  5
3FC
330
3FB
100
AcDbEntity
  8
0
 62
    33
100
AcDbVertex
100
AcDbPolyFaceMeshVertex
 10
2.000000000000624
 20
4.50000000000006
 30
2.000000000000719
 70
   192
  0
VERTEX
  5
3FD
330
3FB
100
AcDbEntity
  8
0
 62
    33
100
AcDbVertex
100
AcDbPolyFaceMeshVertex
 10
5.600000000000888
 20
4.50000000000006
 30
5.600000000000719
 70
   192
  0
VERTEX
  5
3FE
330
3FB
100
AcDbEntity
  8
0
 62
    33
100
AcDbVertex
100
AcDbPolyFaceMeshVertex
 10
69.75000000000084
 20
4.50000000000006
 30
2.000000000000719
 70
   192
  0
VERTEX
  5
3FF
330
3FB
100
AcDbEntity
  8
0
 62
    33
100
AcDbVertex
100
AcDbPolyFaceMeshVertex
 10
2.000000000000624
 20
4.50000000000006
 30
108.0000000000007
 70
   192
  0
VERTEX
  5
400
330
3FB
100
AcDbEntity
  8
0
 62
    33
100
AcDbVertex
100
AcDbPolyFaceMeshVertex
 10
66.1500000000013
 20
4.500000000000204
 30
5.600000000000713
 70
   192
  0
VERTEX
  5
401
330
3FB
100
AcDbEntity
  8
0
 62
    33
100
AcDbVertex
100
AcDbPolyFaceMeshVertex
 10
5.60000000000087
 20
4.50000000000006
 30
104.4000000000004
 70
   192
  0
VERTEX
  5
402
330
3FB
100
AcDbEntity
  8
0
 62
    33
100
AcDbVertex
100
AcDbPolyFaceMeshVertex
 10
69.75000000000084
 20
4.50000000000006
 30
108.0000000000007
 70
   192
  0
VERTEX
  5
403
330
3FB
100
AcDbEntity
  8
0
 62
    33
100
AcDbVertex
100
AcDbPolyFaceMeshVertex
 10
66.1500000000005
 20
4.500000000000204
 30
104.4000000000004
 70
   192
  0
VERTEX
  5
404
330
3FB
100
AcDbEntity
  8
0
 62
    33
100
AcDbFaceRecord
 10
0.0
 20
0.0
 30
0.0
 70
   128
 71
    -1
 72
    -2
 73
     3
  0
VERTEX
  5
405
330
3FB
100
AcDbEntity
  8
0
 62
    33
100
AcDbFaceRecord
 10
0.0
 20
0.0
 30
0.0
 70
   128
 71
    -2
 72
     1
 73
    -4
  0
VERTEX
  5
406
330
3FB
100
AcDbEntity
  8
0
 62
    33
100
AcDbFaceRecord
 10
0.0
 20
0.0
 30
0.0
 70
   128
 71
    -3
 72
     2
 73
    -5
  0
VERTEX
  5
407
330
3FB
100
AcDbEntity
  8
0
 62
    33
100
AcDbFaceRecord
 10
0.0
 20
0.0
 30
0.0
 70
   128
 71
    -2
 72
    -4
 73
     6
  0
VERTEX
  5
408
330
3FB
100
AcDbEntity
  8
0
 62
    33
100
AcDbFaceRecord
 10
0.0
 20
0.0
 30
0.0
 70
   128
 71
    -5
 72
     7
 73
    -3
  0
VERTEX
  5
409
330
3FB
100
AcDbEntity
  8
0
 62
    33
100
AcDbFaceRecord
 10
0.0
 20
0.0
 30
0.0
 70
   128
 71
    -7
 72
     5
 73
    -8
  0
VERTEX
  5
40A
330
3FB
100
AcDbEntity
  8
0
 62
    33
100
AcDbFaceRecord
 10
0.0
 20
0.0
 30
0.0
 70
   128
 71
    -7
 72
     8
 73
    -6
  0
VERTEX
  5
40B
330
3FB
100
AcDbEntity
  8
0
 62
    33
100
AcDbFaceRecord
 10
0.0
 20
0.0
 30
0.0
 70
   128
 71
    -7
 72
    -6
 73
     4
  0
SEQEND
  5
40C
330
3FB
100
AcDbEntity
  8
0
 62
    33
  0
LINE
  5
40D
330
1F
100
AcDbEntity
  8
0
 62
     0
100
AcDbLine
 10
2.000000000000624
 20
4.50000000000006
 30
2.000000000000719
 11
2.000000000000624
 21
4.50000000000006
 31
108.0000000000007
  0
LINE
  5
40E
330
1F
100
AcDbEntity
  8
0
 62
     0
100
AcDbLine
 10
69.75000000000084
 20
4.50000000000006
 30
108.0000000000007
 11
2.000000000000624
 21
4.50000000000006
 31
108.0000000000007
  0
LINE
  5
40F
330
1F
100
AcDbEntity
  8
0
 62
     0
100
AcDbLine
 10
69.75000000000084
 20
4.50000000000006
 30
2.000000000000719
 11
69.75000000000084
 21
4.50000000000006
 31
108.0000000000007
  0
LINE
  5
410
330
1F
100
AcDbEntity
  8
0
 62
     0
100
AcDbLine
 10
2.000000000000624
 20
4.50000000000006
 30
2.000000000000719
 11
69.75000000000084
 21
4.50000000000006
 31
2.000000000000719
  0
LINE
  5
411
330
1F
100
AcDbEntity
  8
0
 62
     0
100
AcDbLine
 10
66.1500000000013
 20
4.500000000000204
 30
5.600000000000713
 11
66.1500000000005
 21
4.500000000000204
 31
104.4000000000004
  0
LINE
  5
412
330
1F
100
AcDbEntity
  8
0
 62
     0
100
AcDbLine
 10
5.60000000000087
 20
4.50000000000006
 30
104.4000000000004
 11
66.1500000000005
 21
4.500000000000204
 31
104.4000000000004
  0
LINE
  5
413
330
1F
100
AcDbEntity
  8
0
 62
     0
100
AcDbLine
 10
5.600000000000888
 20
4.50000000000006
 30
5.600000000000719
 11
5.60000000000087
 21
4.50000000000006
 31
104.4000000000004
  0
LINE
  5
414
330
1F
100
AcDbEntity
  8
0
 62
     0
100
AcDbLine
 10
5.600000000000888
 20
4.50000000000006
 30
5.600000000000719
 11
66.1500000000013
 21
4.500000000000204
 31
5.600000000000713
  0
POLYLINE
  5
415
330
1F
100
AcDbEntity
  8
0
 62
     0
100
AcDbPolyFaceMesh
 66
     1
 10
0.0
 20
0.0
 30
0.0
 70
    64
 71
     4
 72
     2
1001
ACAD_MATERIAL_MAPPER
1070
     1
1070
     1
1070
     1
1011
0.0
1021
0.0
1031
0.0000000000000004
1011
0.0
1021
2.54
1031
0.0000000000000004
1011
0.0
1021
0.0
1031
2.54
1011
1.0
1021
0.0
1031
0.0000000000000004
  0
VERTEX
  5
416
330
415
100
AcDbEntity
  8
0
 62
     0
100
AcDbVertex
100
AcDbPolyFaceMeshVertex
 10
69.75000000000084
 20
4.50000000000006
 30
2.000000000000719
 70
   192
  0
VERTEX
  5
417
330
415
100
AcDbEntity
  8
0
 62
     0
100
AcDbVertex
100
AcDbPolyFaceMeshVertex
 10
69.75000000000084
 20
0.000000000000361
 30
108.0000000000007
 70
   192
  0
VERTEX
  5
418
330
415
100
AcDbEntity
  8
0
 62
     0
100
AcDbVertex
100
AcDbPolyFaceMeshVertex
 10
69.75000000000084
 20
0.000000000000361
 30
2.000000000000719
 70
   192
  0
VERTEX
  5
419
330
415
100
AcDbEntity
  8
0
 62
     0
100
AcDbVertex
100
AcDbPolyFaceMeshVertex
 10
69.75000000000084
 20
4.50000000000006
 30
108.0000000000007
 70
   192
  0
VERTEX
  5
41A
330
415
100
AcDbEntity
  8
0
 62
     0
100
AcDbFaceRecord
 10
0.0
 20
0.0
 30
0.0
 70
   128
 71
    -1
 72
     2
 73
     3
  0
VERTEX
  5
41B
330
415
100
AcDbEntity
  8
0
 62
     0
100
AcDbFaceRecord
 10
0.0
 20
0.0
 30
0.0
 70
   128
 71
    -2
 72
     1
 73
     4
  0
SEQEND
  5
41C
330
415
100
AcDbEntity
  8
0
 62
     0
  0
LINE
  5
41D
330
1F
100
AcDbEntity
  8
0
 62
     0
100
AcDbLine
 10
69.75000000000084
 20
0.000000000000361
 30
2.000000000000719
 11
69.75000000000084
 21
4.50000000000006
 31
2.000000000000719
  0
LINE
  5
41E
330
1F
100
AcDbEntity
  8
0
 62
     0
100
AcDbLine
 10
69.75000000000084
 20
4.50000000000006
 30
2.000000000000719
 11
69.75000000000084
 21
4.50000000000006
 31
108.0000000000007
  0
LINE
  5
41F
330
1F
100
AcDbEntity
  8
0
 62
     0
100
AcDbLine
 10
69.75000000000084
 20
0.000000000000361
 30
108.0000000000007
 11
69.75000000000084
 21
4.50000000000006
 31
108.0000000000007
  0
LINE
  5
420
330
1F
100
AcDbEntity
  8
0
 62
     0
100
AcDbLine
 10
69.75000000000084
 20
0.000000000000361
 30
2.000000000000719
 11
69.75000000000084
 21
0.000000000000361
 31
108.0000000000007
  0
POLYLINE
  5
421
330
1F
100
AcDbEntity
  8
0
 62
    33
100
AcDbPolyFaceMesh
 66
     1
 10
0.0
 20
0.0
 30
0.0
 70
    64
 71
     4
 72
     2
1001
ACAD_MATERIAL_MAPPER
1070
     1
1070
     1
1070
     1
1011
0.0
1021
0.0
1031
0.0000000000000727
1011
0.0
1021
-240.0
1031
0.0000000000000727
1011
0.0
1021
0.0
1031
240.0000000000001
1011
1.0
1021
0.0
1031
0.0000000000000727
  0
VERTEX
  5
422
330
421
100
AcDbEntity
  8
0
 62
    33
100
AcDbVertex
100
AcDbPolyFaceMeshVertex
 10
65.25000000000067
 20
1.700000000000335
 30
103.5000000000006
 70
   192
  0
VERTEX
  5
423
330
421
100
AcDbEntity
  8
0
 62
    33
100
AcDbVertex
100
AcDbPolyFaceMeshVertex
 10
65.25000000000078
 20
0.000000000000361
 30
6.500000000000718
 70
   192
  0
VERTEX
  5
424
330
421
100
AcDbEntity
  8
0
 62
    33
100
AcDbVertex
100
AcDbPolyFaceMeshVertex
 10
65.25000000000067
 20
0.000000000000361
 30
103.5000000000006
 70
   192
  0
VERTEX
  5
425
330
421
100
AcDbEntity
  8
0
 62
    33
100
AcDbVertex
100
AcDbPolyFaceMeshVertex
 10
65.25000000000078
 20
1.700000000000335
 30
6.500000000000718
 70
   192
  0
VERTEX
  5
426
330
421
100
AcDbEntity
  8
0
 62
    33
100
AcDbFaceRecord
 10
0.0
 20
0.0
 30
0.0
 70
   128
 71
    -1
 72
     2
 73
     3
  0
VERTEX
  5
427
330
421
100
AcDbEntity
  8
0
 62
    33
100
AcDbFaceRecord
 10
0.0
 20
0.0
 30
0.0
 70
   128
 71
    -2
 72
     1
 73
     4
  0
SEQEND
  5
428
330
421
100
AcDbEntity
  8
0
 62
    33
  0
LINE
  5
429
330
1F
100
AcDbEntity
  8
0
 62
     0
100
AcDbLine
 10
65.25000000000078
 20
0.000000000000361
 30
6.500000000000718
 11
65.25000000000067
 21
0.000000000000361
 31
103.5000000000006
  0
LINE
  5
42A
330
1F
100
AcDbEntity
  8
0
 62
     0
100
AcDbLine
 10
65.25000000000067
 20
1.700000000000335
 30
103.5000000000006
 11
65.25000000000067
 21
0.000000000000361
 31
103.5000000000006
  0
LINE
  5
42B
330
1F
100
AcDbEntity
  8
0
 62
     0
100
AcDbLine
 10
65.25000000000078
 20
1.700000000000335
 30
6.500000000000718
 11
65.25000000000067
 21
1.700000000000335
 31
103.5000000000006
  0
LINE
  5
42C
330
1F
100
AcDbEntity
  8
0
 62
     0
100
AcDbLine
 10
65.25000000000078
 20
1.700000000000335
 30
6.500000000000718
 11
65.25000000000078
 21
0.000000000000361
 31
6.500000000000718
  0
POLYLINE
  5
42D
330
1F
100
AcDbEntity
  8
0
 62
    33
100
AcDbPolyFaceMesh
 66
     1
 10
0.0
 20
0.0
 30
0.0
 70
    64
 71
     8
 72
     8
1001
ACAD_MATERIAL_MAPPER
1070
     1
1070
     1
1070
     1
1011
0.0
1021
0.0
1031
0.0000000000000302
1011
240.0000000000005
1021
0.0
1031
-0.0000000000000101
1011
0.0
1021
0.0
1031
240.0000000000006
1011
0.0
1021
1.0
1031
0.0000000000000302
  0
VERTEX
  5
42E
330
42D
100
AcDbEntity
  8
0
 62
    33
100
AcDbVertex
100
AcDbPolyFaceMeshVertex
 10
69.75000000000084
 20
0.000000000000361
 30
108.0000000000007
 70
   192
  0
VERTEX
  5
42F
330
42D
100
AcDbEntity
  8
0
 62
    33
100
AcDbVertex
100
AcDbPolyFaceMeshVertex
 10
65.25000000000078
 20
0.000000000000361
 30
6.500000000000718
 70
   192
  0
VERTEX
  5
430
330
42D
100
AcDbEntity
  8
0
 62
    33
100
AcDbVertex
100
AcDbPolyFaceMeshVertex
 10
69.75000000000084
 20
0.000000000000361
 30
2.000000000000719
 70
   192
  0
VERTEX
  5
431
330
42D
100
AcDbEntity
  8
0
 62
    33
100
AcDbVertex
100
AcDbPolyFaceMeshVertex
 10
65.25000000000067
 20
0.000000000000361
 30
103.5000000000006
 70
   192
  0
VERTEX
  5
432
330
42D
100
AcDbEntity
  8
0
 62
    33
100
AcDbVertex
100
AcDbPolyFaceMeshVertex
 10
6.500000000000683
 20
0.000000000000361
 30
103.5000000000006
 70
   192
  0
VERTEX
  5
433
330
42D
100
AcDbEntity
  8
0
 62
    33
100
AcDbVertex
100
AcDbPolyFaceMeshVertex
 10
2.000000000000624
 20
0.0000000000007219
 30
107.9999999999995
 70
   192
  0
VERTEX
  5
434
330
42D
100
AcDbEntity
  8
0
 62
    33
100
AcDbVertex
100
AcDbPolyFaceMeshVertex
 10
2.000000000000624
 20
0.000000000000361
 30
2.000000000000718
 70
   192
  0
VERTEX
  5
435
330
42D
100
AcDbEntity
  8
0
 62
    33
100
AcDbVertex
100
AcDbPolyFaceMeshVertex
 10
6.500000000000683
 20
0.000000000000361
 30
6.500000000000719
 70
   192
  0
VERTEX
  5
436
330
42D
100
AcDbEntity
  8
0
 62
    33
100
AcDbFaceRecord
 10
0.0
 20
0.0
 30
0.0
 70
   128
 71
    -1
 72
    -2
 73
     3
  0
VERTEX
  5
437
330
42D
100
AcDbEntity
  8
0
 62
    33
100
AcDbFaceRecord
 10
0.0
 20
0.0
 30
0.0
 70
   128
 71
    -2
 72
    -1
 73
     4
  0
VERTEX
  5
438
330
42D
100
AcDbEntity
  8
0
 62
    33
100
AcDbFaceRecord
 10
0.0
 20
0.0
 30
0.0
 70
   128
 71
    -4
 72
    -1
 73
     5
  0
VERTEX
  5
439
330
42D
100
AcDbEntity
  8
0
 62
    33
100
AcDbFaceRecord
 10
0.0
 20
0.0
 30
0.0
 70
   128
 71
    -5
 72
     1
 73
    -6
  0
VERTEX
  5
43A
330
42D
100
AcDbEntity
  8
0
 62
    33
100
AcDbFaceRecord
 10
0.0
 20
0.0
 30
0.0
 70
   128
 71
    -7
 72
    -8
 73
     6
  0
VERTEX
  5
43B
330
42D
100
AcDbEntity
  8
0
 62
    33
100
AcDbFaceRecord
 10
0.0
 20
0.0
 30
0.0
 70
   128
 71
    -8
 72
     7
 73
    -3
  0
VERTEX
  5
43C
330
42D
100
AcDbEntity
  8
0
 62
    33
100
AcDbFaceRecord
 10
0.0
 20
0.0
 30
0.0
 70
   128
 71
    -8
 72
    -3
 73
     2
  0
VERTEX
  5
43D
330
42D
100
AcDbEntity
  8
0
 62
    33
100
AcDbFaceRecord
 10
0.0
 20
0.0
 30
0.0
 70
   128
 71
    -6
 72
     8
 73
    -5
  0
SEQEND
  5
43E
330
42D
100
AcDbEntity
  8
0
 62
    33
  0
LINE
  5
43F
330
1F
100
AcDbEntity
  8
0
 62
     0
100
AcDbLine
 10
69.75000000000084
 20
0.000000000000361
 30
108.0000000000007
 11
2.000000000000624
 21
0.0000000000007219
 31
107.9999999999995
  0
LINE
  5
440
330
1F
100
AcDbEntity
  8
0
 62
     0
100
AcDbLine
 10
2.000000000000624
 20
0.000000000000361
 30
2.000000000000718
 11
2.000000000000624
 21
0.0000000000007219
 31
107.9999999999995
  0
LINE
  5
441
330
1F
100
AcDbEntity
  8
0
 62
     0
100
AcDbLine
 10
69.75000000000084
 20
0.000000000000361
 30
2.000000000000719
 11
2.000000000000624
 21
0.000000000000361
 31
2.000000000000718
  0
LINE
  5
442
330
1F
100
AcDbEntity
  8
0
 62
     0
100
AcDbLine
 10
69.75000000000084
 20
0.000000000000361
 30
2.000000000000719
 11
69.75000000000084
 21
0.000000000000361
 31
108.0000000000007
  0
LINE
  5
443
330
1F
100
AcDbEntity
  8
0
 62
     0
100
AcDbLine
 10
6.500000000000683
 20
0.000000000000361
 30
103.5000000000006
 11
65.25000000000067
 21
0.000000000000361
 31
103.5000000000006
  0
LINE
  5
444
330
1F
100
AcDbEntity
  8
0
 62
     0
100
AcDbLine
 10
65.25000000000078
 20
0.000000000000361
 30
6.500000000000718
 11
65.25000000000067
 21
0.000000000000361
 31
103.5000000000006
  0
LINE
  5
445
330
1F
100
AcDbEntity
  8
0
 62
     0
100
AcDbLine
 10
65.25000000000078
 20
0.000000000000361
 30
6.500000000000718
 11
6.500000000000683
 21
0.000000000000361
 31
6.500000000000719
  0
LINE
  5
446
330
1F
100
AcDbEntity
  8
0
 62
     0
100
AcDbLine
 10
6.500000000000683
 20
0.000000000000361
 30
6.500000000000719
 11
6.500000000000683
 21
0.000000000000361
 31
103.5000000000006
  0
POLYLINE
  5
447
330
1F
100
AcDbEntity
  8
0
 62
     0
100
AcDbPolyFaceMesh
 66
     1
 10
0.0
 20
0.0
 30
0.0
 70
    64
 71
     4
 72
     2
1001
ACAD_MATERIAL_MAPPER
1070
     1
1070
     1
1070
     1
1011
-0.000000000000993
1021
-0.0000000000149436
1031
0.0
1011
-2.540000000000993
1021
-0.0000000000149436
1031
0.0
1011
-0.000000000000993
1021
2.539999999985056
1031
0.0
1011
-0.000000000000993
1021
-0.0000000000149436
1031
1.0
  0
VERTEX
  5
448
330
447
100
AcDbEntity
  8
0
 62
     0
100
AcDbVertex
100
AcDbPolyFaceMeshVertex
 10
69.75000000000084
 20
4.50000000000006
 30
108.0000000000007
 70
   192
  0
VERTEX
  5
449
330
447
100
AcDbEntity
  8
0
 62
     0
100
AcDbVertex
100
AcDbPolyFaceMeshVertex
 10
2.000000000000624
 20
0.0000000000007219
 30
107.9999999999995
 70
   192
  0
VERTEX
  5
44A
330
447
100
AcDbEntity
  8
0
 62
     0
100
AcDbVertex
100
AcDbPolyFaceMeshVertex
 10
2.000000000000624
 20
4.50000000000006
 30
108.0000000000007
 70
   192
  0
VERTEX
  5
44B
330
447
100
AcDbEntity
  8
0
 62
     0
100
AcDbVertex
100
AcDbPolyFaceMeshVertex
 10
69.75000000000084
 20
0.000000000000361
 30
108.0000000000007
 70
   192
  0
VERTEX
  5
44C
330
447
100
AcDbEntity
  8
0
 62
     0
100
AcDbFaceRecord
 10
0.0
 20
0.0
 30
0.0
 70
   128
 71
    -1
 72
     2
 73
     3
  0
VERTEX
  5
44D
330
447
100
AcDbEntity
  8
0
 62
     0
100
AcDbFaceRecord
 10
0.0
 20
0.0
 30
0.0
 70
   128
 71
    -2
 72
     1
 73
     4
  0
SEQEND
  5
44E
330
447
100
AcDbEntity
  8
0
 62
     0
  0
LINE
  5
44F
330
1F
100
AcDbEntity
  8
0
 62
     0
100
AcDbLine
 10
69.75000000000084
 20
4.50000000000006
 30
108.0000000000007
 11
2.000000000000624
 21
4.50000000000006
 31
108.0000000000007
  0
LINE
  5
450
330
1F
100
AcDbEntity
  8
0
 62
     0
100
AcDbLine
 10
69.75000000000084
 20
0.000000000000361
 30
108.0000000000007
 11
69.75000000000084
 21
4.50000000000006
 31
108.0000000000007
  0
LINE
  5
451
330
1F
100
AcDbEntity
  8
0
 62
     0
100
AcDbLine
 10
69.75000000000084
 20
0.000000000000361
 30
108.0000000000007
 11
2.000000000000624
 21
0.0000000000007219
 31
107.9999999999995
  0
LINE
  5
452
330
1F
100
AcDbEntity
  8
0
 62
     0
100
AcDbLine
 10
2.000000000000624
 20
0.0000000000007219
 30
107.9999999999995
 11
2.000000000000624
 21
4.50000000000006
 31
108.0000000000007
  0
POLYLINE
  5
453
330
1F
100
AcDbEntity
  8
0
 62
     0
100
AcDbPolyFaceMesh
 66
     1
 10
0.0
 20
0.0
 30
0.0
 70
    64
 71
     8
 72
     8
1001
ACAD_MATERIAL_MAPPER
1070
     1
1070
     1
1070
     1
1011
-0.0000000000000099
1021
0.0
1031
-0.0000000000000004
1011
-2.540000000000011
1021
0.0
1031
-0.0000000000000004
1011
-0.0000000000000125
1021
0.0
1031
2.539999999999999
1011
-0.0000000000000099
1021
1.0
1031
-0.0000000000000004
  0
VERTEX
  5
454
330
453
100
AcDbEntity
  8
0
 62
     0
100
AcDbVertex
100
AcDbPolyFaceMeshVertex
 10
5.600000000000888
 20
1.700000000000335
 30
5.600000000000719
 70
   192
  0
VERTEX
  5
455
330
453
100
AcDbEntity
  8
0
 62
     0
100
AcDbVertex
100
AcDbPolyFaceMeshVertex
 10
6.500000000000683
 20
1.700000000000335
 30
6.500000000000719
 70
   192
  0
VERTEX
  5
456
330
453
100
AcDbEntity
  8
0
 62
     0
100
AcDbVertex
100
AcDbPolyFaceMeshVertex
 10
65.25000000000078
 20
1.700000000000335
 30
6.500000000000718
 70
   192
  0
VERTEX
  5
457
330
453
100
AcDbEntity
  8
0
 62
     0
100
AcDbVertex
100
AcDbPolyFaceMeshVertex
 10
5.60000000000087
 20
1.700000000000335
 30
104.4000000000004
 70
   192
  0
VERTEX
  5
458
330
453
100
AcDbEntity
  8
0
 62
     0
100
AcDbVertex
100
AcDbPolyFaceMeshVertex
 10
6.500000000000683
 20
1.700000000000335
 30
103.5000000000006
 70
   192
  0
VERTEX
  5
459
330
453
100
AcDbEntity
  8
0
 62
     0
100
AcDbVertex
100
AcDbPolyFaceMeshVertex
 10
66.1500000000005
 20
1.70000000000048
 30
104.4000000000004
 70
   192
  0
VERTEX
  5
45A
330
453
100
AcDbEntity
  8
0
 62
     0
100
AcDbVertex
100
AcDbPolyFaceMeshVertex
 10
66.15000000000057
 20
1.70000000000048
 30
5.600000000000713
 70
   192
  0
VERTEX
  5
45B
330
453
100
AcDbEntity
  8
0
 62
     0
100
AcDbVertex
100
AcDbPolyFaceMeshVertex
 10
65.25000000000067
 20
1.700000000000335
 30
103.5000000000006
 70
   192
  0
VERTEX
  5
45C
330
453
100
AcDbEntity
  8
0
 62
     0
100
AcDbFaceRecord
 10
0.0
 20
0.0
 30
0.0
 70
   128
 71
    -1
 72
     2
 73
    -3
  0
VERTEX
  5
45D
330
453
100
AcDbEntity
  8
0
 62
     0
100
AcDbFaceRecord
 10
0.0
 20
0.0
 30
0.0
 70
   128
 71
    -2
 72
     1
 73
    -4
  0
VERTEX
  5
45E
330
453
100
AcDbEntity
  8
0
 62
     0
100
AcDbFaceRecord
 10
0.0
 20
0.0
 30
0.0
 70
   128
 71
    -2
 72
    -4
 73
     5
  0
VERTEX
  5
45F
330
453
100
AcDbEntity
  8
0
 62
     0
100
AcDbFaceRecord
 10
0.0
 20
0.0
 30
0.0
 70
   128
 71
    -5
 72
     4
 73
    -6
  0
VERTEX
  5
460
330
453
100
AcDbEntity
  8
0
 62
     0
100
AcDbFaceRecord
 10
0.0
 20
0.0
 30
0.0
 70
   128
 71
    -7
 72
    -3
 73
     6
  0
VERTEX
  5
461
330
453
100
AcDbEntity
  8
0
 62
     0
100
AcDbFaceRecord
 10
0.0
 20
0.0
 30
0.0
 70
   128
 71
    -3
 72
     7
 73
    -1
  0
VERTEX
  5
462
330
453
100
AcDbEntity
  8
0
 62
     0
100
AcDbFaceRecord
 10
0.0
 20
0.0
 30
0.0
 70
   128
 71
    -6
 72
     3
 73
    -8
  0
VERTEX
  5
463
330
453
100
AcDbEntity
  8
0
 62
     0
100
AcDbFaceRecord
 10
0.0
 20
0.0
 30
0.0
 70
   128
 71
    -6
 72
     8
 73
    -5
  0
SEQEND
  5
464
330
453
100
AcDbEntity
  8
0
 62
     0
  0
LINE
  5
465
330
1F
100
AcDbEntity
  8
0
 62
     0
100
AcDbLine
 10
5.60000000000087
 20
1.700000000000335
 30
104.4000000000004
 11
66.1500000000005
 21
1.70000000000048
 31
104.4000000000004
  0
LINE
  5
466
330
1F
100
AcDbEntity
  8
0
 62
     0
100
AcDbLine
 10
66.15000000000057
 20
1.70000000000048
 30
5.600000000000713
 11
66.1500000000005
 21
1.70000000000048
 31
104.4000000000004
  0
LINE
  5
467
330
1F
100
AcDbEntity
  8
0
 62
     0
100
AcDbLine
 10
66.15000000000057
 20
1.70000000000048
 30
5.600000000000713
 11
5.600000000000888
 21
1.700000000000335
 31
5.600000000000719
  0
LINE
  5
468
330
1F
100
AcDbEntity
  8
0
 62
     0
100
AcDbLine
 10
5.600000000000888
 20
1.700000000000335
 30
5.600000000000719
 11
5.60000000000087
 21
1.700000000000335
 31
104.4000000000004
  0
LINE
  5
469
330
1F
100
AcDbEntity
  8
0
 62
     0
100
AcDbLine
 10
65.25000000000078
 20
1.700000000000335
 30
6.500000000000718
 11
65.25000000000067
 21
1.700000000000335
 31
103.5000000000006
  0
LINE
  5
46A
330
1F
100
AcDbEntity
  8
0
 62
     0
100
AcDbLine
 10
6.500000000000683
 20
1.700000000000335
 30
103.5000000000006
 11
65.25000000000067
 21
1.700000000000335
 31
103.5000000000006
  0
LINE
  5
46B
330
1F
100
AcDbEntity
  8
0
 62
     0
100
AcDbLine
 10
6.500000000000683
 20
1.700000000000335
 30
6.500000000000719
 11
6.500000000000683
 21
1.700000000000335
 31
103.5000000000006
  0
LINE
  5
46C
330
1F
100
AcDbEntity
  8
0
 62
     0
100
AcDbLine
 10
65.25000000000078
 20
1.700000000000335
 30
6.500000000000718
 11
6.500000000000683
 21
1.700000000000335
 31
6.500000000000719
  0
POLYLINE
  5
46D
330
1F
100
AcDbEntity
  8
0
 62
    33
100
AcDbPolyFaceMesh
 66
     1
 10
0.0
 20
0.0
 30
0.0
 70
    64
 71
     4
 72
     2
1001
ACAD_MATERIAL_MAPPER
1070
     1
1070
     1
1070
     1
1011
0.0000000000000318
1021
0.0000000000000006
1031
0.0
1011
-240.0
1021
-0.0000000000000018
1031
0.0
1011
0.0000000000000318
1021
240.0
1031
0.0
1011
0.0000000000000318
1021
0.0000000000000006
1031
1.0
  0
VERTEX
  5
46E
330
46D
100
AcDbEntity
  8
0
 62
    33
100
AcDbVertex
100
AcDbPolyFaceMeshVertex
 10
66.1500000000005
 20
4.500000000000204
 30
104.4000000000004
 70
   192
  0
VERTEX
  5
46F
330
46D
100
AcDbEntity
  8
0
 62
    33
100
AcDbVertex
100
AcDbPolyFaceMeshVertex
 10
5.60000000000087
 20
1.700000000000335
 30
104.4000000000004
 70
   192
  0
VERTEX
  5
470
330
46D
100
AcDbEntity
  8
0
 62
    33
100
AcDbVertex
100
AcDbPolyFaceMeshVertex
 10
5.60000000000087
 20
4.50000000000006
 30
104.4000000000004
 70
   192
  0
VERTEX
  5
471
330
46D
100
AcDbEntity
  8
0
 62
    33
100
AcDbVertex
100
AcDbPolyFaceMeshVertex
 10
66.1500000000005
 20
1.70000000000048
 30
104.4000000000004
 70
   192
  0
VERTEX
  5
472
330
46D
100
AcDbEntity
  8
0
 62
    33
100
AcDbFaceRecord
 10
0.0
 20
0.0
 30
0.0
 70
   128
 71
    -1
 72
     2
 73
     3
  0
VERTEX
  5
473
330
46D
100
AcDbEntity
  8
0
 62
    33
100
AcDbFaceRecord
 10
0.0
 20
0.0
 30
0.0
 70
   128
 71
    -2
 72
     1
 73
     4
  0
SEQEND
  5
474
330
46D
100
AcDbEntity
  8
0
 62
    33
  0
LINE
  5
475
330
1F
100
AcDbEntity
  8
0
 62
     0
100
AcDbLine
 10
5.60000000000087
 20
1.700000000000335
 30
104.4000000000004
 11
66.1500000000005
 21
1.70000000000048
 31
104.4000000000004
  0
LINE
  5
476
330
1F
100
AcDbEntity
  8
0
 62
     0
100
AcDbLine
 10
5.60000000000087
 20
4.50000000000006
 30
104.4000000000004
 11
5.60000000000087
 21
1.700000000000335
 31
104.4000000000004
  0
LINE
  5
477
330
1F
100
AcDbEntity
  8
0
 62
     0
100
AcDbLine
 10
5.60000000000087
 20
4.50000000000006
 30
104.4000000000004
 11
66.1500000000005
 21
4.500000000000204
 31
104.4000000000004
  0
LINE
  5
478
330
1F
100
AcDbEntity
  8
0
 62
     0
100
AcDbLine
 10
66.1500000000005
 20
4.500000000000204
 30
104.4000000000004
 11
66.1500000000005
 21
1.70000000000048
 31
104.4000000000004
  0
POLYLINE
  5
479
330
1F
100
AcDbEntity
  8
0
 62
    33
100
AcDbPolyFaceMesh
 66
     1
 10
0.0
 20
0.0
 30
0.0
 70
    64
 71
     4
 72
     2
1001
ACAD_MATERIAL_MAPPER
1070
     1
1070
     1
1070
     1
1011
0.0000000000000313
1021
0.0
1031
0.0
1011
-240.0
1021
0.0
1031
0.0
1011
0.0000000000000313
1021
240.0
1031
0.0
1011
0.0000000000000313
1021
0.0
1031
1.0
  0
VERTEX
  5
47A
330
479
100
AcDbEntity
  8
0
 62
    33
100
AcDbVertex
100
AcDbPolyFaceMeshVertex
 10
65.25000000000067
 20
1.700000000000335
 30
103.5000000000006
 70
   192
  0
VERTEX
  5
47B
330
479
100
AcDbEntity
  8
0
 62
    33
100
AcDbVertex
100
AcDbPolyFaceMeshVertex
 10
6.500000000000683
 20
0.000000000000361
 30
103.5000000000006
 70
   192
  0
VERTEX
  5
47C
330
479
100
AcDbEntity
  8
0
 62
    33
100
AcDbVertex
100
AcDbPolyFaceMeshVertex
 10
6.500000000000683
 20
1.700000000000335
 30
103.5000000000006
 70
   192
  0
VERTEX
  5
47D
330
479
100
AcDbEntity
  8
0
 62
    33
100
AcDbVertex
100
AcDbPolyFaceMeshVertex
 10
65.25000000000067
 20
0.000000000000361
 30
103.5000000000006
 70
   192
  0
VERTEX
  5
47E
330
479
100
AcDbEntity
  8
0
 62
    33
100
AcDbFaceRecord
 10
0.0
 20
0.0
 30
0.0
 70
   128
 71
    -1
 72
     2
 73
     3
  0
VERTEX
  5
47F
330
479
100
AcDbEntity
  8
0
 62
    33
100
AcDbFaceRecord
 10
0.0
 20
0.0
 30
0.0
 70
   128
 71
    -2
 72
     1
 73
     4
  0
SEQEND
  5
480
330
479
100
AcDbEntity
  8
0
 62
    33
  0
LINE
  5
481
330
1F
100
AcDbEntity
  8
0
 62
     0
100
AcDbLine
 10
6.500000000000683
 20
1.700000000000335
 30
103.5000000000006
 11
6.500000000000683
 21
0.000000000000361
 31
103.5000000000006
  0
LINE
  5
482
330
1F
100
AcDbEntity
  8
0
 62
     0
100
AcDbLine
 10
6.500000000000683
 20
1.700000000000335
 30
103.5000000000006
 11
65.25000000000067
 21
1.700000000000335
 31
103.5000000000006
  0
LINE
  5
483
330
1F
100
AcDbEntity
  8
0
 62
     0
100
AcDbLine
 10
65.25000000000067
 20
1.700000000000335
 30
103.5000000000006
 11
65.25000000000067
 21
0.000000000000361
 31
103.5000000000006
  0
LINE
  5
484
330
1F
100
AcDbEntity
  8
0
 62
     0
100
AcDbLine
 10
6.500000000000683
 20
0.000000000000361
 30
103.5000000000006
 11
65.25000000000067
 21
0.000000000000361
 31
103.5000000000006
  0
INSERT
  5
485
330
1F
100
AcDbEntity
  8
0
 62
     0
100
AcDbBlockReference
 66
     1
  2
GRUPO_2
 10
5.850000000000926
 20
1.700000000000335
 30
5.600000000000719
  0
ATTRIB
  5
486
330
485
100
AcDbEntity
  8
0
100
AcDbText
 10
0.0
 20
0.0
 30
0.0
 40
1.0
  1

100
AcDbAttribute
  2
Skp_GroupInstanceName
 70
     0
  0
SEQEND
  5
487
330
485
100
AcDbEntity
  8
0
 62
     0
  0
INSERT
  5
488
330
1F
100
AcDbEntity
  8
0
 62
     0
100
AcDbBlockReference
 66
     1
  2
GRUPO_1
 10
73.35000000000136
 20
1.700000000000335
 30
5.600000000000719
  0
ATTRIB
  5
489
330
488
100
AcDbEntity
  8
0
100
AcDbText
 10
0.0
 20
0.0
 30
0.0
 40
1.0
  1

100
AcDbAttribute
  2
Skp_GroupInstanceName
 70
     0
  0
SEQEND
  5
48A
330
488
100
AcDbEntity
  8
0
 62
     0
  0
ENDSEC
  0
SECTION
  2
OBJECTS
  0
DICTIONARY
  5
C
330
0
100
AcDbDictionary
  3
ACAD_GROUP
350
D
  3
ACAD_LAYOUT
350
1A
  3
ACAD_MATERIAL
350
43
  3
ACAD_MLEADERSTYLE
350
6B
  3
ACAD_MLINESTYLE
350
17
  3
ACAD_PLOTSETTINGS
350
19
  3
ACAD_SCALELIST
350
47
  3
ACAD_VISUALSTYLE
350
2A
  3
ACDBHEADERROUNDTRIPXREC
350
48B
  3
ACDBVARIABLEDICTIONARY
350
4AC
  0
DICTIONARY
  5
4B3
330
8
100
AcDbDictionary
280
     1
  3
ACAD_XREC_ROUNDTRIP
360
4B4
  0
DICTIONARY
  5
D
102
{ACAD_REACTORS
330
C
102
}
330
C
100
AcDbDictionary
  0
DICTIONARY
  5
1A
102
{ACAD_REACTORS
330
C
102
}
330
C
100
AcDbDictionary
  0
DICTIONARY
  5
43
102
{ACAD_REACTORS
330
C
102
}
330
C
100
AcDbDictionary
  3
BYBLOCK
350
45
  3
BYLAYER
350
44
  3
GLOBAL
350
46
  3
MATERIAL10_COPIA
350
1A3
  3
MATERIAL132
350
234
  3
_AUTO_2
350
8F
  0
DICTIONARY
  5
6B
102
{ACAD_REACTORS
330
C
102
}
330
C
100
AcDbDictionary
  3
STANDARD
350
6C
  0
DICTIONARY
  5
17
102
{ACAD_REACTORS
330
C
102
}
330
C
100
AcDbDictionary
  3
STANDARD
350
18
  0
DICTIONARY
  5
19
102
{ACAD_REACTORS
330
C
102
}
330
C
100
AcDbDictionary
  0
DICTIONARY
  5
47
102
{ACAD_REACTORS
330
C
102
}
330
C
100
AcDbDictionary
  3
A0
350
48
  3
A1
350
49
  3
A2
350
4A
  3
A3
350
4B
  3
A4
350
4C
  3
A5
350
4D
  3
A6
350
4E
  3
A7
350
4F
  3
A8
350
50
  3
A9
350
51
  3
B0
350
52
  3
B1
350
53
  3
B2
350
54
  3
B3
350
55
  3
B4
350
56
  3
B5
350
57
  3
B6
350
58
  3
B7
350
59
  3
B8
350
5A
  3
B9
350
5B
  3
C0
350
5C
  3
C1
350
5D
  3
C2
350
5E
  3
C3
350
5F
  3
C4
350
60
  3
C5
350
61
  3
C6
350
62
  3
C7
350
63
  3
C8
350
64
  3
C9
350
65
  3
D0
350
66
  3
D1
350
67
  3
D2
350
68
  0
DICTIONARY
  5
2A
102
{ACAD_REACTORS
330
C
102
}
330
C
100
AcDbDictionary
  3
2DWIREFRAME
350
2F
  3
BASIC
350
32
  3
BRIGHTEN
350
36
  3
COLORCHANGE
350
3A
  3
CONCEPTUAL
350
34
  3
DIM
350
35
  3
EDGECOLOROFF
350
3D
  3
FACEPATTERN
350
39
  3
FLAT
350
2B
  3
FLATWITHEDGES
350
2C
  3
GOURAUD
350
2D
  3
GOURAUDWITHEDGES
350
2E
  3
HIDDEN
350
31
  3
JITTEROFF
350
3B
  3
LINEPATTERN
350
38
  3
OVERHANGOFF
350
3C
  3
REALISTIC
350
33
  3
SHADED
350
42
  3
SHADED_WITH_EDGES
350
41
  3
SHADES_OF_GRAY
350
3E
  3
SKETCHY
350
3F
  3
THICKEN
350
37
  3
WIREFRAME
350
30
  3
X-RAY
350
40
  0
DICTIONARY
  5
48B
102
{ACAD_REACTORS
330
C
102
}
330
C
100
AcDbDictionary
  3
CEPSNID
350
495
  3
CEPSNTYPE
350
494
  3
DIMSTYLEDATA
350
4AB
  3
FINGERPRINTGUID
350
496
  3
HYPERLINKBASE
350
48E
  3
INSUNITS
350
493
  3
LAYOUTDICT
350
490
  3
LWETCUNION
350
492
  3
PLOTSETDICT
350
491
  3
PSVPSCALE
350
498
  3
PUCSBASE
350
49B
  3
PUCSORGBACK
350
4A1
  3
PUCSORGBOTTOM
350
49D
  3
PUCSORGFRONT
350
4A0
  3
PUCSORGLEFT
350
49E
  3
PUCSORGRIGHT
350
49F
  3
PUCSORGTOP
350
49C
  3
PUCSORTHOREF
350
499
  3
PUCSORTHOVIEW
350
49A
  3
STYLESHEET
350
48F
  3
TSTACKALIGN
350
48C
  3
TSTACKSIZE
350
48D
  3
UCSBASE
350
4A4
  3
UCSORGBACK
350
4AA
  3
UCSORGBOTTOM
350
4A6
  3
UCSORGFRONT
350
4A9
  3
UCSORGLEFT
350
4A7
  3
UCSORGRIGHT
350
4A8
  3
UCSORGTOP
350
4A5
  3
UCSORTHOREF
350
4A2
  3
UCSORTHOVIEW
350
4A3
  3
VERSIONGUID
350
497
  0
DICTIONARY
  5
4AC
102
{ACAD_REACTORS
330
C
102
}
330
C
100
AcDbDictionary
  3
CANNOSCALE
350
4B5
  3
CMLEADERSTYLE
350
4AE
  3
CTABLESTYLE
350
4AD
  3
DIMASSOC
350
4B1
  3
HIDETEXT
350
4B2
  3
MSLTSCALE
350
4B6
  0
XRECORD
  5
4B4
102
{ACAD_REACTORS
330
4B3
102
}
330
4B3
100
AcDbXrecord
102
VTR_0.000_0.000_1.000_1.000_VISUALSTYLE
340
2F
102
VTR_0.000_0.000_1.000_1.000_GRIDDISPLAY
 70
     3
102
VTR_0.000_0.000_1.000_1.000_GRIDMAJOR
 70
     5
102
VTR_0.000_0.000_1.000_1.000_DEFAULTLIGHTING
280
     1
102
VTR_0.000_0.000_1.000_1.000_DEFAULTLIGHTINGTYPE
 70
     1
102
VTR_0.000_0.000_1.000_1.000_BRIGHTNESS
141
0.0
102
VTR_0.000_0.000_1.000_1.000_CONTRAST
142
0.0
  0
MATERIAL
  5
45
102
{ACAD_REACTORS
330
43
102
}
102
{ACAD_XDICTIONARY
360
4B9
102
}
330
43
100
AcDbMaterial
  1
BYBLOCK
  0
MATERIAL
  5
44
102
{ACAD_REACTORS
330
43
102
}
102
{ACAD_XDICTIONARY
360
4B7
102
}
330
43
100
AcDbMaterial
  1
BYLAYER
  0
MATERIAL
  5
46
102
{ACAD_REACTORS
330
43
102
}
102
{ACAD_XDICTIONARY
360
4BB
102
}
330
43
100
AcDbMaterial
  1
GLOBAL
  0
MATERIAL
  5
1A3
102
{ACAD_REACTORS
330
43
102
}
102
{ACAD_XDICTIONARY
360
4BF
102
}
330
43
100
AcDbMaterial
  1
MATERIAL10_COPIA
140
0.5
  0
MATERIAL
  5
234
102
{ACAD_REACTORS
330
43
102
}
102
{ACAD_XDICTIONARY
360
4C1
102
}
330
43
100
AcDbMaterial
  1
MATERIAL132
  3
D0100_F.textures/Material132.jpg
  0
MATERIAL
  5
8F
102
{ACAD_REACTORS
330
43
102
}
102
{ACAD_XDICTIONARY
360
4BD
102
}
330
43
100
AcDbMaterial
  1
_AUTO_2
  0
ACAD_PROXY_OBJECT
  5
6C
102
{ACAD_REACTORS
330
6B
102
}
330
6B
100
AcDbProxyObject
 90
      499
 91
      505
 93
      610
310
40901902A4063FBFFFFFE056BD1B81E855B9FC0AD7A3703D0AD73F4214DD185B99185C9900AD7A3703D0AC73F90141901A02B5E8DC0F42B1CFC02B5E8DC0F42B1CFE5764000000000000300FC0
340
14
340
0
340
11
340
0
 94
        0
1001
ACAD_MLEADERVER
1070
     2
  0
MLINESTYLE
  5
18
102
{ACAD_REACTORS
330
17
102
}
330
17
100
AcDbMlineStyle
  2
Standard
 70
     0
  3

 62
   256
 51
90.0
 52
90.0
 71
     2
 49
0.5
 62
   256
  6
BYLAYER
 49
-0.5
 62
   256
  6
BYLAYER
  0
ACAD_PROXY_OBJECT
  5
48
102
{ACAD_REACTORS
330
47
102
}
330
47
100
AcDbProxyObject
 90
      499
 91
      503
 93
       41
310
903313A31580
  0
ACAD_PROXY_OBJECT
  5
49
102
{ACAD_REACTORS
330
47
102
}
330
47
100
AcDbProxyObject
 90
      499
 91
      503
 93
      105
310
903313A324000000000000004000
  0
ACAD_PROXY_OBJECT
  5
4A
102
{ACAD_REACTORS
330
47
102
}
330
47
100
AcDbProxyObject
 90
      499
 91
      503
 93
      105
310
903313A344000000000000104000
  0
ACAD_PROXY_OBJECT
  5
4B
102
{ACAD_REACTORS
330
47
102
}
330
47
100
AcDbProxyObject
 90
      499
 91
      503
 93
      105
310
903313A354000000000000144000
  0
ACAD_PROXY_OBJECT
  5
4C
102
{ACAD_REACTORS
330
47
102
}
330
47
100
AcDbProxyObject
 90
      499
 91
      503
 93
      105
310
903313A384000000000000204000
  0
ACAD_PROXY_OBJECT
  5
4D
102
{ACAD_REACTORS
330
47
102
}
330
47
100
AcDbProxyObject
 90
      499
 91
      503
 93
      113
310
904313A31304000000000000244000
  0
ACAD_PROXY_OBJECT
  5
4E
102
{ACAD_REACTORS
330
47
102
}
330
47
100
AcDbProxyObject
 90
      499
 91
      503
 93
      113
310
904313A31364000000000000304000
  0
ACAD_PROXY_OBJECT
  5
4F
102
{ACAD_REACTORS
330
47
102
}
330
47
100
AcDbProxyObject
 90
      499
 91
      503
 93
      113
310
904313A32304000000000000344000
  0
ACAD_PROXY_OBJECT
  5
50
102
{ACAD_REACTORS
330
47
102
}
330
47
100
AcDbProxyObject
 90
      499
 91
      503
 93
      113
310
904313A333040000000000003E4000
  0
ACAD_PROXY_OBJECT
  5
51
102
{ACAD_REACTORS
330
47
102
}
330
47
100
AcDbProxyObject
 90
      499
 91
      503
 93
      113
310
904313A34304000000000000444000
  0
ACAD_PROXY_OBJECT
  5
52
102
{ACAD_REACTORS
330
47
102
}
330
47
100
AcDbProxyObject
 90
      499
 91
      503
 93
      113
310
904313A35304000000000000494000
  0
ACAD_PROXY_OBJECT
  5
53
102
{ACAD_REACTORS
330
47
102
}
330
47
100
AcDbProxyObject
 90
      499
 91
      503
 93
      121
310
905313A3130304000000000000594000
  0
ACAD_PROXY_OBJECT
  5
54
102
{ACAD_REACTORS
330
47
102
}
330
47
100
AcDbProxyObject
 90
      499
 91
      503
 93
      105
310
903323A310000000000000010100
  0
ACAD_PROXY_OBJECT
  5
55
102
{ACAD_REACTORS
330
47
102
}
330
47
100
AcDbProxyObject
 90
      499
 91
      503
 93
      105
310
903343A310000000000000410100
  0
ACAD_PROXY_OBJECT
  5
56
102
{ACAD_REACTORS
330
47
102
}
330
47
100
AcDbProxyObject
 90
      499
 91
      503
 93
      105
310
903383A310000000000000810100
  0
ACAD_PROXY_OBJECT
  5
57
102
{ACAD_REACTORS
330
47
102
}
330
47
100
AcDbProxyObject
 90
      499
 91
      503
 93
      113
310
90431303A310000000000000910100
  0
ACAD_PROXY_OBJECT
  5
58
102
{ACAD_REACTORS
330
47
102
}
330
47
100
AcDbProxyObject
 90
      499
 91
      503
 93
      121
310
9053130303A310000000000001650100
  0
ACAD_PROXY_OBJECT
  5
59
102
{ACAD_REACTORS
330
47
102
}
330
47
100
AcDbProxyObject
 90
      499
 91
      503
 93
      257
310
90E312F31323822203D2031272D3022000000000000200FC000000000000284000
  0
ACAD_PROXY_OBJECT
  5
5A
102
{ACAD_REACTORS
330
47
102
}
330
47
100
AcDbProxyObject
 90
      499
 91
      503
 93
      249
310
90D312F363422203D2031272D3022000000000000240FC000000000000284000
  0
ACAD_PROXY_OBJECT
  5
5B
102
{ACAD_REACTORS
330
47
102
}
330
47
100
AcDbProxyObject
 90
      499
 91
      503
 93
      249
310
90D312F333222203D2031272D3022000000000000280FC000000000000284000
  0
ACAD_PROXY_OBJECT
  5
5C
102
{ACAD_REACTORS
330
47
102
}
330
47
100
AcDbProxyObject
 90
      499
 91
      503
 93
      249
310
90D312F313622203D2031272D30220000000000002C0FC000000000000284000
  0
ACAD_PROXY_OBJECT
  5
5D
102
{ACAD_REACTORS
330
47
102
}
330
47
100
AcDbProxyObject
 90
      499
 91
      503
 93
      249
310
90D332F333222203D2031272D30220000000000002E0FC000000000000284000
  0
ACAD_PROXY_OBJECT
  5
5E
102
{ACAD_REACTORS
330
47
102
}
330
47
100
AcDbProxyObject
 90
      499
 91
      503
 93
      241
310
90C312F3822203D2031272D3022000000000000300FC000000000000284000
  0
ACAD_PROXY_OBJECT
  5
5F
102
{ACAD_REACTORS
330
47
102
}
330
47
100
AcDbProxyObject
 90
      499
 91
      503
 93
      249
310
90D332F313622203D2031272D3022000000000000320FC000000000000284000
  0
ACAD_PROXY_OBJECT
  5
60
102
{ACAD_REACTORS
330
47
102
}
330
47
100
AcDbProxyObject
 90
      499
 91
      503
 93
      241
310
90C312F3422203D2031272D3022000000000000340FC000000000000284000
  0
ACAD_PROXY_OBJECT
  5
61
102
{ACAD_REACTORS
330
47
102
}
330
47
100
AcDbProxyObject
 90
      499
 91
      503
 93
      241
310
90C332F3822203D2031272D3022000000000000360FC000000000000284000
  0
ACAD_PROXY_OBJECT
  5
62
102
{ACAD_REACTORS
330
47
102
}
330
47
100
AcDbProxyObject
 90
      499
 91
      503
 93
      241
310
90C312F3222203D2031272D3022000000000000380FC000000000000284000
  0
ACAD_PROXY_OBJECT
  5
63
102
{ACAD_REACTORS
330
47
102
}
330
47
100
AcDbProxyObject
 90
      499
 91
      503
 93
      241
310
90C332F3422203D2031272D30220000000000003A0FC000000000000284000
  0
ACAD_PROXY_OBJECT
  5
64
102
{ACAD_REACTORS
330
47
102
}
330
47
100
AcDbProxyObject
 90
      499
 91
      503
 93
      161
310
90A3122203D2031272D30224000000000000284000
  0
ACAD_PROXY_OBJECT
  5
65
102
{ACAD_REACTORS
330
47
102
}
330
47
100
AcDbProxyObject
 90
      499
 91
      503
 93
      257
310
90E312D312F3222203D2031272D30220000000000003E0FC000000000000284000
  0
ACAD_PROXY_OBJECT
  5
66
102
{ACAD_REACTORS
330
47
102
}
330
47
100
AcDbProxyObject
 90
      499
 91
      503
 93
      225
310
90A3322203D2031272D302200000000000002100000000000000284000
  0
ACAD_PROXY_OBJECT
  5
67
102
{ACAD_REACTORS
330
47
102
}
330
47
100
AcDbProxyObject
 90
      499
 91
      503
 93
      225
310
90A3622203D2031272D302200000000000006100000000000000284000
  0
ACAD_PROXY_OBJECT
  5
68
102
{ACAD_REACTORS
330
47
102
}
330
47
100
AcDbProxyObject
 90
      499
 91
      503
 93
      249
310
90D31272D3022203D2031272D30220000000000000A100000000000000284000
  0
ACAD_PROXY_OBJECT
  5
2F
102
{ACAD_REACTORS
330
2A
102
}
330
2A
100
AcDbProxyObject
 90
      499
 91
      501
 93
      436
310
42CC9915DA5C99599C985B595049028333333333333E33F0000000000000F90107901411070040501600405405064090741402480A0340
1001
ACAD
1000
AcDbSavedByObjectVersion
1070
     0
  0
ACAD_PROXY_OBJECT
  5
32
102
{ACAD_REACTORS
330
2A
102
}
330
2A
100
AcDbProxyObject
 90
      499
 91
      501
 93
      388
310
4150985CDA58D07406404333333333333E33F0000000000000F90107A41107004050150841D405064090741402480A0350
1001
ACAD
1000
AcDbSavedByObjectVersion
1070
     0
  0
ACAD_PROXY_OBJECT
  5
36
102
{ACAD_REACTORS
330
2A
102
}
330
2A
100
AcDbProxyObject
 90
      499
 91
      501
 93
      428
310
42109C9A59DA1D195B90C409028333333333333E33F0000000000000F9010790141107004050150841D405064090741402480A029950
1001
ACAD
1000
AcDbSavedByObjectVersion
1070
     0
  0
ACAD_PROXY_OBJECT
  5
3A
102
{ACAD_REACTORS
330
2A
102
}
330
2A
100
AcDbProxyObject
 90
      499
 91
      501
 93
      452
310
42D0DBDB1BDC90DA185B99D95104090240C333333333333E33F0000000000000F90108901411070040501508421405064090741402480A0350
1001
ACAD
1000
AcDbSavedByObjectVersion
1070
     0
  0
ACAD_PROXY_OBJECT
  5
34
102
{ACAD_REACTORS
330
2A
102
}
330
2A
100
AcDbProxyObject
 90
      499
 91
      501
 93
      500
310
4290DBDB98D95C1D1D585B10940D028333333333333E33F0000000000000F90107902409070040501000000000018199010841D405064090740C02480A0340
1001
ACAD
1000
AcDbSavedByObjectVersion
1070
     0
  0
ACAD_PROXY_OBJECT
  5
35
102
{ACAD_REACTORS
330
2A
102
}
330
2A
100
AcDbProxyObject
 90
      499
 91
      501
 93
      412
310
40D11A5B50B409028333333333333E33F0000000000000F9010790141107004050150841D405064090741402480A02677FFFFFD0
1001
ACAD
1000
AcDbSavedByObjectVersion
1070
     0
  0
ACAD_PROXY_OBJECT
  5
3D
102
{ACAD_REACTORS
330
2A
102
}
330
2A
100
AcDbProxyObject
 90
      499
 91
      501
 93
      452
310
43115919D950DBDB1BDC93D999916409028333333333333E33F0000000000000F9010790141107004050150841D405064090741402480A0350
1001
ACAD
1000
AcDbSavedByObjectVersion
1070
     0
  0
ACAD_PROXY_OBJECT
  5
39
102
{ACAD_REACTORS
330
2A
102
}
330
2A
100
AcDbProxyObject
 90
      499
 91
      501
 93
      444
310
42D19858D95C185D1D195C9B90F409028333333333333E33F0000000000000F9010790141107004050150841D405064090741402480A0350
1001
ACAD
1000
AcDbSavedByObjectVersion
1070
     0
  0
ACAD_PROXY_OBJECT
  5
2B
102
{ACAD_REACTORS
330
2A
102
}
330
2A
100
AcDbProxyObject
 90
      499
 91
      501
 93
      380
310
41119B185D240901404333333333333E33F0000000000000F9010740A907004050150841D405064090741402480A1B50
1001
ACAD
1000
AcDbSavedByObjectVersion
1070
     0
  0
ACAD_PROXY_OBJECT
  5
2C
102
{ACAD_REACTORS
330
2A
102
}
330
2A
100
AcDbProxyObject
 90
      499
 91
      501
 93
      468
310
43519B185D15DA5D1A115919D95CD0140901404333333333333E33F0000000000000F90107409019070040501600405405064090741402480A1B50
1001
ACAD
1000
AcDbSavedByObjectVersion
1070
     0
  0
ACAD_PROXY_OBJECT
  5
2D
102
{ACAD_REACTORS
330
2A
102
}
330
2A
100
AcDbProxyObject
 90
      499
 91
      501
 93
      404
310
41D1DBDD5C985D5910240902404333333333333E33F0000000000000F9010740A9070040501641D405064090741402480A1B50
1001
ACAD
1000
AcDbSavedByObjectVersion
1070
     0
  0
ACAD_PROXY_OBJECT
  5
2E
102
{ACAD_REACTORS
330
2A
102
}
330
2A
100
AcDbProxyObject
 90
      499
 91
      501
 93
      492
310
4411DBDD5C985D5915DA5D1A115919D95CD0340902404333333333333E33F0000000000000F90107409019070040501600405405064090741402480A1B50
1001
ACAD
1000
AcDbSavedByObjectVersion
1070
     0
  0
ACAD_PROXY_OBJECT
  5
31
102
{ACAD_REACTORS
330
2A
102
}
330
2A
100
AcDbProxyObject
 90
      499
 91
      501
 93
      476
310
41921A5919195B90640502408333333333333E33F0000000000000F901079024090700405020000000000001110200405405064090740C02480A0340
1001
ACAD
1000
AcDbSavedByObjectVersion
1070
     0
  0
ACAD_PROXY_OBJECT
  5
3B
102
{ACAD_REACTORS
330
2A
102
}
330
2A
100
AcDbProxyObject
 90
      499
 91
      501
 93
      428
310
42529A5D1D195C93D999914409028333333333333E33F0000000000000F9010790141107004050150A41D405064090741402480A0350
1001
ACAD
1000
AcDbSavedByObjectVersion
1070
     0
  0
ACAD_PROXY_OBJECT
  5
38
102
{ACAD_REACTORS
330
2A
102
}
330
2A
100
AcDbProxyObject
 90
      499
 91
      501
 93
      444
310
42D31A5B995C185D1D195C9B90E409028333333333333E33F0000000000000F9010790141107004050750841D405064090741402483A0350
1001
ACAD
1000
AcDbSavedByObjectVersion
1070
     0
  0
ACAD_PROXY_OBJECT
  5
3C
102
{ACAD_REACTORS
330
2A
102
}
330
2A
100
AcDbProxyObject
 90
      499
 91
      501
 93
      444
310
42D3DD995C9A185B99D3D999915409028333333333333E33F0000000000000F9010790141107004050150941D405064090741402480A0350
1001
ACAD
1000
AcDbSavedByObjectVersion
1070
     0
  0
ACAD_PROXY_OBJECT
  5
33
102
{ACAD_REACTORS
330
2A
102
}
330
2A
100
AcDbProxyObject
 90
      499
 91
      501
 93
      428
310
425499585B1A5CDD1A58D08409038333333333333E33F0000000000000F9010740A907004050150800405405064090740C02480A1B40
1001
ACAD
1000
AcDbSavedByObjectVersion
1070
     0
  0
ACAD_PROXY_OBJECT
  5
42
102
{ACAD_REACTORS
330
2A
102
}
330
2A
100
AcDbProxyObject
 90
      499
 91
      501
 93
      420
310
4194DA1859195911B40902404333333333333E33F0000000000000F9010740A41107004050150800405405064090840C02480A0B40
1001
ACAD
1000
AcDbSavedByObjectVersion
1070
     0
  0
ACAD_PROXY_OBJECT
  5
41
102
{ACAD_REACTORS
330
2A
102
}
330
2A
100
AcDbProxyObject
 90
      499
 91
      501
 93
      516
310
4454DA18591959081DDA5D1A08195919D95CD1A40902404333333333333E33F0000000000000F901074090142907004050250800405405064090740C02480A0B40
1001
ACAD
1000
AcDbSavedByObjectVersion
1070
     0
  0
ACAD_PROXY_OBJECT
  5
3E
102
{ACAD_REACTORS
330
2A
102
}
330
2A
100
AcDbProxyObject
 90
      499
 91
      501
 93
      532
310
4394DA1859195CC81BD98811DC985E5174090240C333333333333E33F0000000000000F901079024090741D01000000000000111010841D405064090740C02480A0340
1001
ACAD
1000
AcDbSavedByObjectVersion
1070
     0
  0
ACAD_PROXY_OBJECT
  5
3F
102
{ACAD_REACTORS
330
2A
102
}
330
2A
100
AcDbProxyObject
 90
      499
 91
      501
 93
      476
310
41D4DAD95D18DA1E51840502408333333333333E33F0000000000000F901079024090741D01000000000000111010B41D405064090741802480A0340
1001
ACAD
1000
AcDbSavedByObjectVersion
1070
     0
  0
ACAD_PROXY_OBJECT
  5
37
102
{ACAD_REACTORS
330
2A
102
}
330
2A
100
AcDbProxyObject
 90
      499
 91
      501
 93
      412
310
41D51A1A58DAD95B90D409028333333333333E33F0000000000000F9010790141107004050150C41D405064090741402480A0350
1001
ACAD
1000
AcDbSavedByObjectVersion
1070
     0
  0
ACAD_PROXY_OBJECT
  5
30
102
{ACAD_REACTORS
330
2A
102
}
330
2A
100
AcDbProxyObject
 90
      499
 91
      501
 93
      420
310
4255DA5C99599C985B595059028333333333333E33F0000000000000F90107901411070040501600405405064090740C02480A0340
1001
ACAD
1000
AcDbSavedByObjectVersion
1070
     0
  0
ACAD_PROXY_OBJECT
  5
40
102
{ACAD_REACTORS
330
2A
102
}
330
2A
100
AcDbProxyObject
 90
      499
 91
      501
 93
      404
310
41560B54985E51940902404000000000000E03F0000000000000F9010740501907004050150841D405064090740C02480A1B40
1001
ACAD
1000
AcDbSavedByObjectVersion
1070
     0
  0
XRECORD
  5
495
102
{ACAD_REACTORS
330
48B
102
}
330
48B
100
AcDbXrecord
340
0
  0
XRECORD
  5
494
102
{ACAD_REACTORS
330
48B
102
}
330
48B
100
AcDbXrecord
 90
        0
  0
XRECORD
  5
4AB
102
{ACAD_REACTORS
330
48B
102
}
330
48B
100
AcDbXrecord
1000
DSTYLE
1002
{
1070
   171
 70
     2
1070
   143
 40
25.4
1070
   274
 70
     2
1070
    41
 40
0.18
1070
   141
 40
0.09
1070
   271
 70
     4
1070
    43
 40
0.38
1070
   278
 70
    46
1070
    44
 40
0.18
1070
    42
 40
0.0625
1070
   147
 40
0.09
1070
    77
 70
     0
1070
   272
 70
     4
1070
    73
 70
     1
1070
   172
 70
     0
1070
    74
 70
     1
1070
   283
 70
     1
1070
   340
340
11
1070
   140
 40
0.18
1070
   284
 70
     0
1070
    78
 70
     0
1002
}
  0
XRECORD
  5
496
102
{ACAD_REACTORS
330
48B
102
}
330
48B
100
AcDbXrecord
  1
{776af2f6-e48e-ad4f-9cc5-0309456ea088}
  0
XRECORD
  5
48E
102
{ACAD_REACTORS
330
48B
102
}
330
48B
100
AcDbXrecord
  1

  0
XRECORD
  5
493
102
{ACAD_REACTORS
330
48B
102
}
330
48B
100
AcDbXrecord
 90
        5
  0
XRECORD
  5
490
102
{ACAD_REACTORS
330
48B
102
}
330
48B
100
AcDbXrecord
340
1A
  0
XRECORD
  5
492
102
{ACAD_REACTORS
330
48B
102
}
330
48B
100
AcDbXrecord
 90
    10781
  0
XRECORD
  5
491
102
{ACAD_REACTORS
330
48B
102
}
330
48B
100
AcDbXrecord
340
19
  0
XRECORD
  5
498
102
{ACAD_REACTORS
330
48B
102
}
330
48B
100
AcDbXrecord
 40
0.0
  0
XRECORD
  5
49B
102
{ACAD_REACTORS
330
48B
102
}
330
48B
100
AcDbXrecord
340
0
  0
XRECORD
  5
4A1
102
{ACAD_REACTORS
330
48B
102
}
330
48B
100
AcDbXrecord
 10
0.0
 20
0.0
 30
0.0
  0
XRECORD
  5
49D
102
{ACAD_REACTORS
330
48B
102
}
330
48B
100
AcDbXrecord
 10
0.0
 20
0.0
 30
0.0
  0
XRECORD
  5
4A0
102
{ACAD_REACTORS
330
48B
102
}
330
48B
100
AcDbXrecord
 10
0.0
 20
0.0
 30
0.0
  0
XRECORD
  5
49E
102
{ACAD_REACTORS
330
48B
102
}
330
48B
100
AcDbXrecord
 10
0.0
 20
0.0
 30
0.0
  0
XRECORD
  5
49F
102
{ACAD_REACTORS
330
48B
102
}
330
48B
100
AcDbXrecord
 10
0.0
 20
0.0
 30
0.0
  0
XRECORD
  5
49C
102
{ACAD_REACTORS
330
48B
102
}
330
48B
100
AcDbXrecord
 10
0.0
 20
0.0
 30
0.0
  0
XRECORD
  5
499
102
{ACAD_REACTORS
330
48B
102
}
330
48B
100
AcDbXrecord
340
0
  0
XRECORD
  5
49A
102
{ACAD_REACTORS
330
48B
102
}
330
48B
100
AcDbXrecord
 70
     0
  0
XRECORD
  5
48F
102
{ACAD_REACTORS
330
48B
102
}
330
48B
100
AcDbXrecord
  1

  0
XRECORD
  5
48C
102
{ACAD_REACTORS
330
48B
102
}
330
48B
100
AcDbXrecord
 90
        1
  0
XRECORD
  5
48D
102
{ACAD_REACTORS
330
48B
102
}
330
48B
100
AcDbXrecord
 90
       70
  0
XRECORD
  5
4A4
102
{ACAD_REACTORS
330
48B
102
}
330
48B
100
AcDbXrecord
340
0
  0
XRECORD
  5
4AA
102
{ACAD_REACTORS
330
48B
102
}
330
48B
100
AcDbXrecord
 10
0.0
 20
0.0
 30
0.0
  0
XRECORD
  5
4A6
102
{ACAD_REACTORS
330
48B
102
}
330
48B
100
AcDbXrecord
 10
0.0
 20
0.0
 30
0.0
  0
XRECORD
  5
4A9
102
{ACAD_REACTORS
330
48B
102
}
330
48B
100
AcDbXrecord
 10
0.0
 20
0.0
 30
0.0
  0
XRECORD
  5
4A7
102
{ACAD_REACTORS
330
48B
102
}
330
48B
100
AcDbXrecord
 10
0.0
 20
0.0
 30
0.0
  0
XRECORD
  5
4A8
102
{ACAD_REACTORS
330
48B
102
}
330
48B
100
AcDbXrecord
 10
0.0
 20
0.0
 30
0.0
  0
XRECORD
  5
4A5
102
{ACAD_REACTORS
330
48B
102
}
330
48B
100
AcDbXrecord
 10
0.0
 20
0.0
 30
0.0
  0
XRECORD
  5
4A2
102
{ACAD_REACTORS
330
48B
102
}
330
48B
100
AcDbXrecord
340
0
  0
XRECORD
  5
4A3
102
{ACAD_REACTORS
330
48B
102
}
330
48B
100
AcDbXrecord
 70
     0
  0
XRECORD
  5
497
102
{ACAD_REACTORS
330
48B
102
}
330
48B
100
AcDbXrecord
  1
{FAEB1C32-E019-11D5-929B-00C0DF256EC4}
  0
DICTIONARYVAR
  5
4B5
102
{ACAD_REACTORS
330
4AC
102
}
330
4AC
100
DictionaryVariables
280
     0
  1
1:1
  0
DICTIONARYVAR
  5
4AE
102
{ACAD_REACTORS
330
4AC
102
}
330
4AC
100
DictionaryVariables
280
     0
  1
Standard
  0
DICTIONARYVAR
  5
4AD
102
{ACAD_REACTORS
330
4AC
102
}
330
4AC
100
DictionaryVariables
280
     0
  1
Standard
  0
DICTIONARYVAR
  5
4B1
102
{ACAD_REACTORS
330
4AC
102
}
330
4AC
100
DictionaryVariables
280
     0
  1
2
  0
DICTIONARYVAR
  5
4B2
102
{ACAD_REACTORS
330
4AC
102
}
330
4AC
100
DictionaryVariables
280
     0
  1
1
  0
DICTIONARYVAR
  5
4B6
102
{ACAD_REACTORS
330
4AC
102
}
330
4AC
100
DictionaryVariables
280
     0
  1
1
  0
DICTIONARY
  5
4B9
330
45
100
AcDbDictionary
280
     1
  3
ACAD_XREC_ROUNDTRIP
360
4BA
  0
DICTIONARY
  5
4B7
330
44
100
AcDbDictionary
280
     1
  3
ACAD_XREC_ROUNDTRIP
360
4B8
  0
DICTIONARY
  5
4BB
330
46
100
AcDbDictionary
280
     1
  3
ACAD_XREC_ROUNDTRIP
360
4BC
  0
DICTIONARY
  5
4BF
330
1A3
100
AcDbDictionary
280
     1
  3
ACAD_XREC_ROUNDTRIP
360
4C0
  0
DICTIONARY
  5
4C1
330
234
100
AcDbDictionary
280
     1
  3
ACAD_XREC_ROUNDTRIP
360
4C2
  0
DICTIONARY
  5
4BD
330
8F
100
AcDbDictionary
280
     1
  3
ACAD_XREC_ROUNDTRIP
360
4BE
  0
XRECORD
  5
4BA
102
{ACAD_REACTORS
330
4B9
102
}
330
4B9
100
AcDbXrecord
102
MATERIAL
148
0.0
149
0.0
149
0.0
 93
        0
 94
      127
282
     0
 72
     1
 77
     1
171
     1
175
     1
179
     1
273
     0
  0
XRECORD
  5
4B8
102
{ACAD_REACTORS
330
4B7
102
}
330
4B7
100
AcDbXrecord
102
MATERIAL
148
0.0
149
0.0
149
0.0
 93
        0
 94
      127
282
     0
 72
     1
 77
     1
171
     1
175
     1
179
     1
273
     0
  0
XRECORD
  5
4BC
102
{ACAD_REACTORS
330
4BB
102
}
330
4BB
100
AcDbXrecord
102
MATERIAL
148
0.0
149
0.0
149
0.0
 93
        0
 94
      127
282
     0
 72
     1
 77
     1
171
     1
175
     1
179
     1
273
     0
  0
XRECORD
  5
4C0
102
{ACAD_REACTORS
330
4BF
102
}
330
4BF
100
AcDbXrecord
102
MATERIAL
148
0.0
149
0.0
149
0.0
 93
        0
 94
        8
282
     0
 72
     1
 77
     1
171
     1
175
     1
179
     1
273
     0
  0
XRECORD
  5
4C2
102
{ACAD_REACTORS
330
4C1
102
}
330
4C1
100
AcDbXrecord
102
MATERIAL
148
0.0
149
0.0
149
0.0
 93
        0
 94
        1
282
     0
 72
     1
 77
     1
171
     1
175
     1
179
     1
273
     0
  0
XRECORD
  5
4BE
102
{ACAD_REACTORS
330
4BD
102
}
330
4BD
100
AcDbXrecord
102
MATERIAL
148
0.0
149
0.0
149
0.0
 93
        0
 94
        0
282
     0
 72
     1
 77
     1
171
     1
175
     1
179
     1
273
     0
  0
ENDSEC
  0
EOF
