  0
SECTION
  2
HEADER
  9
$ACADVER
  1
AC1014
  9
$ACADMAINTVER
 70
     9
  9
$DWGCODEPAGE
  3
MAC-ROMAN
  9
$INSBASE
 10
0.0
 20
0.0
 30
0.0
  9
$EXTMIN
 10
1.000000000000000E+20
 20
1.000000000000000E+20
 30
1.000000000000000E+20
  9
$EXTMAX
 10
-1.000000000000000E+20
 20
-1.000000000000000E+20
 30
-1.000000000000000E+20
  9
$LIMMIN
 10
0.0
 20
0.0
  9
$LIMMAX
 10
12.0
 20
9.0
  9
$ORTHOMODE
 70
     0
  9
$REGENMODE
 70
     1
  9
$FILLMODE
 70
     1
  9
$QTEXTMODE
 70
     0
  9
$MIRRTEXT
 70
     1
  9
$DRAGMODE
 70
     2
  9
$LTSCALE
 40
2.54
  9
$OSMODE
 70
    37
  9
$ATTMODE
 70
     1
  9
$TEXTSIZE
 40
0.2
  9
$TRACEWID
 40
0.05
  9
$TEXTSTYLE
  7
STANDARD
  9
$CLAYER
  8
0
  9
$CELTYPE
  6
BYLAYER
  9
$CECOLOR
 62
   256
  9
$CELTSCALE
 40
1.0
  9
$DELOBJ
 70
     1
  9
$DISPSILH
 70
     0
  9
$DIMSCALE
 40
1.0
  9
$DIMASZ
 40
0.18
  9
$DIMEXO
 40
0.0625
  9
$DIMDLI
 40
0.38
  9
$DIMRND
 40
0.0
  9
$DIMDLE
 40
0.0
  9
$DIMEXE
 40
0.18
  9
$DIMTP
 40
0.0
  9
$DIMTM
 40
0.0
  9
$DIMTXT
 40
0.18
  9
$DIMCEN
 40
0.09
  9
$DIMTSZ
 40
0.0
  9
$DIMTOL
 70
     0
  9
$DIMLIM
 70
     0
  9
$DIMTIH
 70
     1
  9
$DIMTOH
 70
     1
  9
$DIMSE1
 70
     0
  9
$DIMSE2
 70
     0
  9
$DIMTAD
 70
     0
  9
$DIMZIN
 70
     0
  9
$DIMBLK
  1

  9
$DIMASO
 70
     1
  9
$DIMSHO
 70
     1
  9
$DIMPOST
  1

  9
$DIMAPOST
  1

  9
$DIMALT
 70
     0
  9
$DIMALTD
 70
     2
  9
$DIMALTF
 40
25.4
  9
$DIMLFAC
 40
1.0
  9
$DIMTOFL
 70
     0
  9
$DIMTVP
 40
0.0
  9
$DIMTIX
 70
     0
  9
$DIMSOXD
 70
     0
  9
$DIMSAH
 70
     0
  9
$DIMBLK1
  1

  9
$DIMBLK2
  1

  9
$DIMSTYLE
  2
STANDARD
  9
$DIMCLRD
 70
     0
  9
$DIMCLRE
 70
     0
  9
$DIMCLRT
 70
     0
  9
$DIMTFAC
 40
1.0
  9
$DIMGAP
 40
0.09
  9
$DIMJUST
 70
     0
  9
$DIMSD1
 70
     0
  9
$DIMSD2
 70
     0
  9
$DIMTOLJ
 70
     1
  9
$DIMTZIN
 70
     0
  9
$DIMALTZ
 70
     0
  9
$DIMALTTZ
 70
     0
  9
$DIMFIT
 70
     3
  9
$DIMUPT
 70
     0
  9
$DIMUNIT
 70
     2
  9
$DIMDEC
 70
     4
  9
$DIMTDEC
 70
     4
  9
$DIMALTU
 70
     2
  9
$DIMALTTD
 70
     2
  9
$DIMTXSTY
  7
STANDARD
  9
$DIMAUNIT
 70
     0
  9
$LUNITS
 70
     2
  9
$LUPREC
 70
     4
  9
$SKETCHINC
 40
0.1
  9
$FILLETRAD
 40
0.5
  9
$AUNITS
 70
     0
  9
$AUPREC
 70
     0
  9
$MENU
  1
.
  9
$ELEVATION
 40
0.0
  9
$PELEVATION
 40
0.0
  9
$THICKNESS
 40
0.0
  9
$LIMCHECK
 70
     0
  9
$CHAMFERA
 40
0.0
  9
$CHAMFERB
 40
0.0
  9
$CHAMFERC
 40
0.0
  9
$CHAMFERD
 40
0.0
  9
$SKPOLY
 70
     0
  9
$TDCREATE
 40
2460073.753094363
  9
$TDUPDATE
 40
2460073.753094884
  9
$TDINDWG
 40
0.0000000116
  9
$TDUSRTIMER
 40
0.0000000116
  9
$USRTIMER
 70
     1
  9
$ANGBASE
 50
0.0
  9
$ANGDIR
 70
     0
  9
$PDMODE
 70
     0
  9
$PDSIZE
 40
0.0
  9
$PLINEWID
 40
0.0
  9
$COORDS
 70
     1
  9
$SPLFRAME
 70
     0
  9
$SPLINETYPE
 70
     6
  9
$SPLINESEGS
 70
     8
  9
$ATTDIA
 70
     0
  9
$ATTREQ
 70
     1
  9
$HANDLING
 70
     1
  9
$HANDSEED
  5
46E
  9
$SURFTAB1
 70
     6
  9
$SURFTAB2
 70
     6
  9
$SURFTYPE
 70
     6
  9
$SURFU
 70
     6
  9
$SURFV
 70
     6
  9
$UCSNAME
  2

  9
$UCSORG
 10
0.0
 20
0.0
 30
0.0
  9
$UCSXDIR
 10
1.0
 20
0.0
 30
0.0
  9
$UCSYDIR
 10
0.0
 20
1.0
 30
0.0
  9
$PUCSNAME
  2

  9
$PUCSORG
 10
0.0
 20
0.0
 30
0.0
  9
$PUCSXDIR
 10
1.0
 20
0.0
 30
0.0
  9
$PUCSYDIR
 10
0.0
 20
1.0
 30
0.0
  9
$USERI1
 70
     0
  9
$USERI2
 70
     0
  9
$USERI3
 70
     0
  9
$USERI4
 70
     0
  9
$USERI5
 70
     0
  9
$USERR1
 40
0.0
  9
$USERR2
 40
0.0
  9
$USERR3
 40
0.0
  9
$USERR4
 40
0.0
  9
$USERR5
 40
0.0
  9
$WORLDVIEW
 70
     1
  9
$SHADEDGE
 70
     3
  9
$SHADEDIF
 70
    70
  9
$TILEMODE
 70
     1
  9
$MAXACTVP
 70
    64
  9
$PINSBASE
 10
0.0
 20
0.0
 30
0.0
  9
$PLIMCHECK
 70
     0
  9
$PEXTMIN
 10
1.000000000000000E+20
 20
1.000000000000000E+20
 30
1.000000000000000E+20
  9
$PEXTMAX
 10
-1.000000000000000E+20
 20
-1.000000000000000E+20
 30
-1.000000000000000E+20
  9
$PLIMMIN
 10
0.0
 20
0.0
  9
$PLIMMAX
 10
12.0
 20
9.0
  9
$UNITMODE
 70
     0
  9
$VISRETAIN
 70
     1
  9
$PLINEGEN
 70
     0
  9
$PSLTSCALE
 70
     1
  9
$TREEDEPTH
 70
  3020
  9
$PICKSTYLE
 70
     1
  9
$CMLSTYLE
  2
STANDARD
  9
$CMLJUST
 70
     0
  9
$CMLSCALE
 40
1.0
  9
$PROXYGRAPHICS
 70
     1
  9
$MEASUREMENT
 70
     1
  0
ENDSEC
  0
SECTION
  2
CLASSES
  0
CLASS
  1
ACDBDICTIONARYWDFLT
  2
AcDbDictionaryWithDefault
  3
ObjectDBX Classes
 90
        0
280
     0
281
     0
  0
CLASS
  1
VISUALSTYLE
  2
AcDbVisualStyle
  3
ObjectDBX Classes
 90
     4095
280
     0
281
     0
  0
CLASS
  1
MATERIAL
  2
AcDbMaterial
  3
ObjectDBX Classes
 90
     1153
280
     0
281
     0
  0
CLASS
  1
SCALE
  2
AcDbScale
  3
ObjectDBX Classes
 90
     1153
280
     0
281
     0
  0
CLASS
  1
TABLESTYLE
  2
AcDbTableStyle
  3
ObjectDBX Classes
 90
     4095
280
     0
281
     0
  0
CLASS
  1
MLEADERSTYLE
  2
AcDbMLeaderStyle
  3
ACDB_MLEADERSTYLE_CLASS
 90
     4095
280
     0
281
     0
  0
CLASS
  1
SUN
  2
AcDbSun
  3
SCENEOE
 90
     1153
280
     0
281
     0
  0
CLASS
  1
CAMERA
  2
AcDbCamera
  3
ACCAMERA
 90
      195
280
     0
281
     1
  0
CLASS
  1
DICTIONARYVAR
  2
AcDbDictionaryVar
  3
ObjectDBX Classes
 90
        0
280
     0
281
     0
  0
CLASS
  1
XRECORD
  2
AcDbXrecord
  3
ObjectDBX Classes
 90
        0
280
     0
281
     0
  0
CLASS
  1
LWPOLYLINE
  2
AcDbPolyline
  3
ObjectDBX Classes
 90
        0
280
     0
281
     1
  0
CLASS
  1
HATCH
  2
AcDbHatch
  3
ObjectDBX Classes
 90
        0
280
     0
281
     1
  0
CLASS
  1
ACDBPLACEHOLDER
  2
AcDbPlaceHolder
  3
ObjectDBX Classes
 90
        0
280
     0
281
     0
  0
CLASS
  1
LAYOUT
  2
AcDbLayout
  3
ObjectDBX Classes
 90
        0
280
     0
281
     0
  0
ENDSEC
  0
SECTION
  2
TABLES
  0
TABLE
  2
VPORT
  5
8
102
{ACAD_XDICTIONARY
360
45B
102
}
330
0
100
AcDbSymbolTable
 70
     1
  0
VPORT
  5
29
330
8
100
AcDbSymbolTableRecord
100
AcDbViewportTableRecord
  2
*ACTIVE
 70
     0
 10
0.0
 20
0.0
 11
1.0
 21
1.0
 12
0.0
 22
0.0
 13
0.0
 23
0.0
 14
0.5
 24
0.5
 15
0.5
 25
0.5
 16
0.5353004626486286
 26
-0.8312303953626754
 36
0.1500314784082809
 17
84.15537412248449
 27
14.51993636291763
 37
54.05591684041723
 40
176.0446495468735
 41
1.3333
 42
50.38394550081738
 43
-325.9637882547946
 44
2211.496211745206
 50
0.0
 51
0.0000000000000032
 71
     1
 72
   100
 73
     1
 74
     3
 75
     0
 76
     0
 77
     0
 78
     0
  0
ENDTAB
  0
TABLE
  2
LTYPE
  5
5
330
0
100
AcDbSymbolTable
 70
     1
  0
LTYPE
  5
14
330
5
100
AcDbSymbolTableRecord
100
AcDbLinetypeTableRecord
  2
BYBLOCK
 70
     0
  3

 72
    65
 73
     0
 40
0.0
  0
LTYPE
  5
15
330
5
100
AcDbSymbolTableRecord
100
AcDbLinetypeTableRecord
  2
BYLAYER
 70
     0
  3

 72
    65
 73
     0
 40
0.0
  0
LTYPE
  5
16
330
5
100
AcDbSymbolTableRecord
100
AcDbLinetypeTableRecord
  2
CONTINUOUS
 70
     0
  3
Solid line
 72
    65
 73
     0
 40
0.0
  0
ENDTAB
  0
TABLE
  2
LAYER
  5
2
330
0
100
AcDbSymbolTable
 70
     2
  0
LAYER
  5
10
330
2
100
AcDbSymbolTableRecord
100
AcDbLayerTableRecord
  2
0
 70
     0
 62
    13
  6
CONTINUOUS
  0
LAYER
  5
6F
330
2
100
AcDbSymbolTableRecord
100
AcDbLayerTableRecord
  2
TEMPORARY_SYSTEM_CAMERAS_L
 70
     0
 62
     7
  6
CONTINUOUS
  0
ENDTAB
  0
TABLE
  2
STYLE
  5
3
330
0
100
AcDbSymbolTable
 70
     2
  0
STYLE
  5
11
330
3
100
AcDbSymbolTableRecord
100
AcDbTextStyleTableRecord
  2
STANDARD
 70
     0
 40
0.0
 41
1.0
 50
0.0
 71
     0
 42
0.2
  3
txt
  4

  0
STYLE
  5
71
330
3
100
AcDbSymbolTableRecord
100
AcDbTextStyleTableRecord
  2
LUCIDA_GRANDE
 70
     0
 40
0.0
 41
1.0
 50
0.0
 71
     0
 42
0.2
  3
Lucida Grande
  4

1001
ACAD
1000
Lucida Grande
1071
       34
  0
ENDTAB
  0
TABLE
  2
VIEW
  5
6
330
0
100
AcDbSymbolTable
 70
     1
  0
VIEW
  5
6E
330
6
100
AcDbSymbolTableRecord
100
AcDbViewTableRecord
  2
ESCENA1
 70
     0
 40
176.0446495468735
 10
0.0
 20
0.0
 41
234.7203312408464
 11
26.97054933665084
 21
-41.88066693857592
 31
7.559177831529883
 12
84.15537412248449
 22
14.51993636291763
 32
54.05591684041723
 42
50.38394550081738
 43
-325.9637882547946
 44
2211.496211745206
 50
0.0000000000000032
 71
     1
  0
ENDTAB
  0
TABLE
  2
UCS
  5
7
330
0
100
AcDbSymbolTable
 70
     0
  0
ENDTAB
  0
TABLE
  2
APPID
  5
9
330
0
100
AcDbSymbolTable
 70
     3
  0
APPID
  5
12
330
9
100
AcDbSymbolTableRecord
100
AcDbRegAppTableRecord
  2
ACAD
 70
     0
  0
APPID
  5
BD
330
9
100
AcDbSymbolTableRecord
100
AcDbRegAppTableRecord
  2
ACAD_MATERIAL_MAPPER
 70
     0
  0
APPID
  5
46D
330
9
100
AcDbSymbolTableRecord
100
AcDbRegAppTableRecord
  2
ACAD_MLEADERVER
 70
     0
  0
ENDTAB
  0
TABLE
  2
DIMSTYLE
  5
A
330
0
100
AcDbSymbolTable
 70
     2
  0
DIMSTYLE
105
27
330
A
100
AcDbSymbolTableRecord
100
AcDbDimStyleTableRecord
  2
STANDARD
 70
     0
  3

  4

  5

  6

  7

 40
1.0
 41
0.18
 42
0.0625
 43
0.38
 44
0.18
 45
0.0
 46
0.0
 47
0.0
 48
0.0
140
0.18
141
0.09
142
0.0
143
25.4
144
1.0
145
0.0
146
1.0
147
0.09
 71
     0
 72
     0
 73
     1
 74
     1
 75
     0
 76
     0
 77
     0
 78
     0
170
     0
171
     2
172
     0
173
     0
174
     0
175
     0
176
     0
177
     0
178
     0
270
     2
271
     4
272
     4
273
     2
274
     2
340
11
275
     0
280
     0
281
     0
282
     0
283
     1
284
     0
285
     0
286
     0
287
     3
288
     0
  0
DIMSTYLE
105
72
330
A
100
AcDbSymbolTableRecord
100
AcDbDimStyleTableRecord
  2
DIMENSIONS
 70
     0
  3
cm
  4

  5

  6

  7

 40
1.0
 41
1.27
 42
1.27
 43
0.38
 44
1.27
 45
0.0
 46
0.0
 47
0.0
 48
0.0
140
2.54
141
0.09
142
0.0
143
25.4
144
1.0
145
0.0
146
1.0
147
0.254
 71
     0
 72
     0
 73
     1
 74
     1
 75
     0
 76
     0
 77
     0
 78
     0
170
     0
171
     2
172
     0
173
     0
174
     0
175
     0
176
     0
177
     0
178
     0
270
     2
271
     1
272
     4
273
     2
274
     2
340
71
275
     0
280
     0
281
     0
282
     0
283
     1
284
     0
285
     0
286
     0
287
     3
288
     0
  0
ENDTAB
  0
TABLE
  2
BLOCK_RECORD
  5
1
330
0
100
AcDbSymbolTable
 70
     3
  0
BLOCK_RECORD
  5
1F
330
1
100
AcDbSymbolTableRecord
100
AcDbBlockTableRecord
  2
*MODEL_SPACE
  0
BLOCK_RECORD
  5
1B
330
1
100
AcDbSymbolTableRecord
100
AcDbBlockTableRecord
  2
*PAPER_SPACE
  0
BLOCK_RECORD
  5
73
330
1
100
AcDbSymbolTableRecord
100
AcDbBlockTableRecord
  2
RS_OLUM_V2-PL_DWG
  0
BLOCK_RECORD
  5
76
330
1
100
AcDbSymbolTableRecord
100
AcDbBlockTableRecord
  2
GRUPO_1
  0
BLOCK_RECORD
  5
79
330
1
100
AcDbSymbolTableRecord
100
AcDbBlockTableRecord
  2
GRUPO_2
  0
ENDTAB
  0
ENDSEC
  0
SECTION
  2
BLOCKS
  0
BLOCK
  5
20
330
1F
100
AcDbEntity
  8
0
100
AcDbBlockBegin
  2
*MODEL_SPACE
 70
     0
 10
0.0
 20
0.0
 30
0.0
  3
*MODEL_SPACE
  1

  0
ENDBLK
  5
21
330
1F
100
AcDbEntity
  8
0
100
AcDbBlockEnd
  0
BLOCK
  5
1C
330
1B
100
AcDbEntity
 67
     1
  8
0
100
AcDbBlockBegin
  2
*PAPER_SPACE
 70
     0
 10
0.0
 20
0.0
 30
0.0
  3
*PAPER_SPACE
  1

  0
ENDBLK
  5
1D
330
1B
100
AcDbEntity
 67
     1
  8
0
100
AcDbBlockEnd
  0
BLOCK
  5
74
330
73
100
AcDbEntity
  8
0
100
AcDbBlockBegin
  2
RS_OLUM_V2-PL_DWG
 70
     0
 10
0.0
 20
0.0
 30
0.0
  3
RS_OLUM_V2-PL_DWG
  1

  0
LINE
  5
7D
330
73
100
AcDbEntity
  8
0
 62
     6
100
AcDbLine
 10
0.2199999999999861
 20
13.1
 30
0.0
 11
0.0499999999999886
 21
13.1
 31
0.0
  0
LINE
  5
7E
330
73
100
AcDbEntity
  8
0
 62
     6
100
AcDbLine
 10
0.0499999999999886
 20
13.1
 30
0.0
 11
0.0499999999999886
 21
13.54999999999999
 31
0.0
  0
LINE
  5
7F
330
73
100
AcDbEntity
  8
0
 62
     6
100
AcDbLine
 10
0.0499999999999886
 20
13.54999999999999
 30
0.0
 11
0.4999999999999946
 21
13.54999999999999
 31
0.0
  0
LINE
  5
80
330
73
100
AcDbEntity
  8
0
 62
     6
100
AcDbLine
 10
0.4999999999999946
 20
13.54999999999999
 30
0.0
 11
0.4999999999999946
 21
13.19
 31
0.0
  0
LINE
  5
81
330
73
100
AcDbEntity
  8
0
 62
     6
100
AcDbLine
 10
0.4999999999999946
 20
13.19
 30
0.0
 11
0.2199999999999861
 21
13.19
 31
0.0
  0
LINE
  5
82
330
73
100
AcDbEntity
  8
0
 62
     6
100
AcDbLine
 10
0.2199999999999861
 20
13.19
 30
0.0
 11
0.2199999999999861
 21
13.1
 31
0.0
  0
LINE
  5
83
330
73
100
AcDbEntity
  8
0
 62
     6
100
AcDbLine
 10
0.0
 20
13.75
 30
0.0
 11
0.9500000000000006
 21
13.75
 31
0.0
  0
LINE
  5
84
330
73
100
AcDbEntity
  8
0
 62
     6
100
AcDbLine
 10
0.9500000000000006
 20
13.75
 30
0.0
 11
0.9500000000000006
 21
13.54999999999999
 31
0.0
  0
LINE
  5
85
330
73
100
AcDbEntity
  8
0
 62
     6
100
AcDbLine
 10
0.9500000000000006
 20
13.54999999999999
 30
0.0
 11
0.0
 21
13.54999999999999
 31
0.0
  0
LINE
  5
86
330
73
100
AcDbEntity
  8
0
 62
     6
100
AcDbLine
 10
0.0
 20
13.54999999999999
 30
0.0
 11
0.0
 21
13.75
 31
0.0
  0
LINE
  5
87
330
73
100
AcDbEntity
  8
0
 62
     6
100
AcDbLine
 10
0.2800000000000085
 20
13.19
 30
0.0
 11
0.4999999999999946
 21
13.19
 31
0.0
  0
LINE
  5
88
330
73
100
AcDbEntity
  8
0
 62
     6
100
AcDbLine
 10
0.4999999999999946
 20
13.19
 30
0.0
 11
0.4999999999999946
 21
13.1
 31
0.0
  0
LINE
  5
89
330
73
100
AcDbEntity
  8
0
 62
     6
100
AcDbLine
 10
0.4999999999999946
 20
13.1
 30
0.0
 11
0.2800000000000085
 21
13.1
 31
0.0
  0
LINE
  5
8A
330
73
100
AcDbEntity
  8
0
 62
     6
100
AcDbLine
 10
0.2800000000000085
 20
13.1
 30
0.0
 11
0.2800000000000085
 21
13.19
 31
0.0
  0
LINE
  5
8C
330
73
100
AcDbEntity
  8
0
 62
     8
100
AcDbLine
 10
0.2800000000000085
 20
13.19
 30
0.0
 11
0.2799999999999724
 21
7.009999999999977
 31
0.0
  0
LINE
  5
8D
330
73
100
AcDbEntity
  8
0
 62
     8
100
AcDbLine
 10
0.2199999999999861
 20
13.19
 30
0.0
 11
0.2199999999999861
 21
7.009999999999977
 31
0.0
  0
LINE
  5
8E
330
73
100
AcDbEntity
  8
0
 62
     8
100
AcDbLine
 10
0.4999999999999946
 20
13.1
 30
0.0
 11
0.5000000000000308
 21
7.099999999999992
 31
0.0
  0
LINE
  5
8F
330
73
100
AcDbEntity
  8
0
 62
     6
100
AcDbLine
 10
0.2199999999999861
 20
7.099999999999992
 30
0.0
 11
0.0499999999999886
 21
7.099999999999992
 31
0.0
  0
LINE
  5
90
330
73
100
AcDbEntity
  8
0
 62
     6
100
AcDbLine
 10
0.0499999999999886
 20
7.099999999999992
 30
0.0
 11
0.0499999999999886
 21
6.649999999999986
 31
0.0
  0
LINE
  5
91
330
73
100
AcDbEntity
  8
0
 62
     6
100
AcDbLine
 10
0.0499999999999886
 20
6.649999999999986
 30
0.0
 11
0.4999999999999946
 21
6.649999999999986
 31
0.0
  0
LINE
  5
92
330
73
100
AcDbEntity
  8
0
 62
     6
100
AcDbLine
 10
0.4999999999999946
 20
6.649999999999986
 30
0.0
 11
0.4999999999999946
 21
7.009999999999977
 31
0.0
  0
LINE
  5
93
330
73
100
AcDbEntity
  8
0
 62
     6
100
AcDbLine
 10
0.4999999999999946
 20
7.009999999999977
 30
0.0
 11
0.2199999999999861
 21
7.009999999999977
 31
0.0
  0
LINE
  5
94
330
73
100
AcDbEntity
  8
0
 62
     6
100
AcDbLine
 10
0.2199999999999861
 20
7.009999999999977
 30
0.0
 11
0.2199999999999861
 21
7.099999999999992
 31
0.0
  0
LINE
  5
95
330
73
100
AcDbEntity
  8
0
 62
     6
100
AcDbLine
 10
0.2799999999999724
 20
7.009999999999977
 30
0.0
 11
0.4999999999999946
 21
7.009999999999977
 31
0.0
  0
LINE
  5
96
330
73
100
AcDbEntity
  8
0
 62
     6
100
AcDbLine
 10
0.4999999999999946
 20
7.009999999999977
 30
0.0
 11
0.5000000000000308
 21
7.099999999999992
 31
0.0
  0
LINE
  5
97
330
73
100
AcDbEntity
  8
0
 62
     6
100
AcDbLine
 10
0.5000000000000308
 20
7.099999999999992
 30
0.0
 11
0.2800000000000085
 21
7.099999999999992
 31
0.0
  0
LINE
  5
98
330
73
100
AcDbEntity
  8
0
 62
     6
100
AcDbLine
 10
0.2800000000000085
 20
7.099999999999992
 30
0.0
 11
0.2799999999999724
 21
7.009999999999977
 31
0.0
  0
LINE
  5
99
330
73
100
AcDbEntity
  8
0
 62
     8
100
AcDbLine
 10
0.0499999999999886
 20
13.1
 30
0.0
 11
0.0499999999999886
 21
7.099999999999992
 31
0.0
  0
LINE
  5
9A
330
73
100
AcDbEntity
  8
0
 62
     6
100
AcDbLine
 10
0.6700000000000281
 20
6.649999999999986
 30
0.0
 11
0.4999999999999946
 21
6.649999999999986
 31
0.0
  0
LINE
  5
9B
330
73
100
AcDbEntity
  8
0
 62
     6
100
AcDbLine
 10
0.4999999999999946
 20
6.649999999999986
 30
0.0
 11
0.5000000000000308
 21
7.099999999999992
 31
0.0
  0
LINE
  5
9C
330
73
100
AcDbEntity
  8
0
 62
     6
100
AcDbLine
 10
0.5000000000000308
 20
7.099999999999992
 30
0.0
 11
0.9500000000000367
 21
7.099999999999992
 31
0.0
  0
LINE
  5
9D
330
73
100
AcDbEntity
  8
0
 62
     6
100
AcDbLine
 10
0.9500000000000367
 20
7.099999999999992
 30
0.0
 11
0.9500000000000367
 21
6.740000000000002
 31
0.0
  0
LINE
  5
9E
330
73
100
AcDbEntity
  8
0
 62
     6
100
AcDbLine
 10
0.9500000000000367
 20
6.740000000000002
 30
0.0
 11
0.6700000000000281
 21
6.740000000000002
 31
0.0
  0
LINE
  5
9F
330
73
100
AcDbEntity
  8
0
 62
     6
100
AcDbLine
 10
0.6700000000000281
 20
6.740000000000002
 30
0.0
 11
0.6700000000000281
 21
6.649999999999986
 31
0.0
  0
LINE
  5
A0
330
73
100
AcDbEntity
  8
0
 62
     6
100
AcDbLine
 10
0.7300000000000145
 20
6.740000000000002
 30
0.0
 11
0.9500000000000367
 21
6.740000000000002
 31
0.0
  0
LINE
  5
A1
330
73
100
AcDbEntity
  8
0
 62
     6
100
AcDbLine
 10
0.9500000000000367
 20
6.740000000000002
 30
0.0
 11
0.9500000000000367
 21
6.649999999999986
 31
0.0
  0
LINE
  5
A2
330
73
100
AcDbEntity
  8
0
 62
     6
100
AcDbLine
 10
0.9500000000000367
 20
6.649999999999986
 30
0.0
 11
0.7300000000000145
 21
6.649999999999986
 31
0.0
  0
LINE
  5
A3
330
73
100
AcDbEntity
  8
0
 62
     6
100
AcDbLine
 10
0.7300000000000145
 20
6.649999999999986
 30
0.0
 11
0.7300000000000145
 21
6.740000000000002
 31
0.0
  0
LINE
  5
A4
330
73
100
AcDbEntity
  8
0
 62
     8
100
AcDbLine
 10
0.7300000000000145
 20
6.740000000000002
 30
0.0
 11
0.7299999999999784
 21
0.559999999999981
 31
0.0
  0
LINE
  5
A5
330
73
100
AcDbEntity
  8
0
 62
     8
100
AcDbLine
 10
0.6700000000000281
 20
6.740000000000002
 30
0.0
 11
0.669999999999992
 21
0.559999999999981
 31
0.0
  0
LINE
  5
A6
330
73
100
AcDbEntity
  8
0
 62
     8
100
AcDbLine
 10
0.9500000000000367
 20
6.649999999999986
 30
0.0
 11
0.9500000000000367
 21
0.6499999999999966
 31
0.0
  0
LINE
  5
A7
330
73
100
AcDbEntity
  8
0
 62
     6
100
AcDbLine
 10
0.6700000000000281
 20
0.6499999999999966
 30
0.0
 11
0.5000000000000308
 21
0.6499999999999966
 31
0.0
  0
LINE
  5
A8
330
73
100
AcDbEntity
  8
0
 62
     6
100
AcDbLine
 10
0.5000000000000308
 20
0.6499999999999966
 30
0.0
 11
0.5000000000000308
 21
0.1999999999999906
 31
0.0
  0
LINE
  5
A9
330
73
100
AcDbEntity
  8
0
 62
     6
100
AcDbLine
 10
0.5000000000000308
 20
0.1999999999999906
 30
0.0
 11
0.9500000000000367
 21
0.1999999999999906
 31
0.0
  0
LINE
  5
AA
330
73
100
AcDbEntity
  8
0
 62
     6
100
AcDbLine
 10
0.9500000000000367
 20
0.1999999999999906
 30
0.0
 11
0.9500000000000367
 21
0.559999999999981
 31
0.0
  0
LINE
  5
AB
330
73
100
AcDbEntity
  8
0
 62
     6
100
AcDbLine
 10
0.9500000000000367
 20
0.559999999999981
 30
0.0
 11
0.669999999999992
 21
0.559999999999981
 31
0.0
  0
LINE
  5
AC
330
73
100
AcDbEntity
  8
0
 62
     6
100
AcDbLine
 10
0.669999999999992
 20
0.559999999999981
 30
0.0
 11
0.6700000000000281
 21
0.6499999999999966
 31
0.0
  0
LINE
  5
AD
330
73
100
AcDbEntity
  8
0
 62
     6
100
AcDbLine
 10
0.7299999999999784
 20
0.559999999999981
 30
0.0
 11
0.9500000000000367
 21
0.559999999999981
 31
0.0
  0
LINE
  5
AE
330
73
100
AcDbEntity
  8
0
 62
     6
100
AcDbLine
 10
0.9500000000000367
 20
0.559999999999981
 30
0.0
 11
0.9500000000000367
 21
0.6499999999999966
 31
0.0
  0
LINE
  5
AF
330
73
100
AcDbEntity
  8
0
 62
     6
100
AcDbLine
 10
0.9500000000000367
 20
0.6499999999999966
 30
0.0
 11
0.7300000000000145
 21
0.6499999999999966
 31
0.0
  0
LINE
  5
B0
330
73
100
AcDbEntity
  8
0
 62
     6
100
AcDbLine
 10
0.7300000000000145
 20
0.6499999999999966
 30
0.0
 11
0.7299999999999784
 21
0.559999999999981
 31
0.0
  0
LINE
  5
B1
330
73
100
AcDbEntity
  8
0
 62
     8
100
AcDbLine
 10
0.4999999999999946
 20
6.649999999999986
 30
0.0
 11
0.5000000000000308
 21
0.6499999999999966
 31
0.0
  0
LINE
  5
B2
330
73
100
AcDbEntity
  8
0
 62
     6
100
AcDbLine
 10
0.0000000000000361
 20
0.0
 30
0.0
 11
0.9500000000000367
 21
0.0
 31
0.0
  0
LINE
  5
B3
330
73
100
AcDbEntity
  8
0
 62
     6
100
AcDbLine
 10
0.9500000000000367
 20
0.0
 30
0.0
 11
0.9500000000000367
 21
0.1999999999999906
 31
0.0
  0
LINE
  5
B4
330
73
100
AcDbEntity
  8
0
 62
     6
100
AcDbLine
 10
0.9500000000000367
 20
0.1999999999999906
 30
0.0
 11
0.0000000000000361
 21
0.1999999999999906
 31
0.0
  0
LINE
  5
B5
330
73
100
AcDbEntity
  8
0
 62
     6
100
AcDbLine
 10
0.0000000000000361
 20
0.1999999999999906
 30
0.0
 11
0.0000000000000361
 21
0.0
 31
0.0
  0
LINE
  5
B6
330
73
100
AcDbEntity
  8
0
 62
     6
100
AcDbLine
 10
0.9500000000000006
 20
13.54999999999999
 30
0.0
 11
0.9500000000000367
 21
7.099999999999992
 31
0.0
  0
LINE
  5
B7
330
73
100
AcDbEntity
  8
0
 62
     6
100
AcDbLine
 10
0.0499999999999886
 20
6.649999999999986
 30
0.0
 11
0.0499999999999886
 21
0.1999999999999906
 31
0.0
  0
LINE
  5
B9
330
73
100
AcDbEntity
  8
0
 62
     1
100
AcDbLine
 10
0.0
 20
13.75
 30
0.0
 11
0.1599999999999997
 21
13.75
 31
0.0
  0
LINE
  5
BA
330
73
100
AcDbEntity
  8
0
 62
     1
100
AcDbLine
 10
0.0000000000000361
 20
0.0
 30
0.0
 11
0.1599999999999636
 21
0.0
 31
0.0
  0
LINE
  5
BB
330
73
100
AcDbEntity
  8
0
 62
     6
100
AcDbLine
 10
0.0000000000000361
 20
0.1999999999999906
 30
0.0
 11
0.0
 21
13.54999999999999
 31
0.0
  0
ENDBLK
  5
75
330
73
100
AcDbEntity
  8
0
100
AcDbBlockEnd
  0
BLOCK
  5
77
330
76
100
AcDbEntity
  8
0
100
AcDbBlockBegin
  2
GRUPO_1
 70
     0
 10
0.0
 20
0.0
 30
0.0
  3
GRUPO_1
  1

  0
POLYLINE
  5
BE
330
76
100
AcDbEntity
  8
0
 62
     7
100
AcDbPolyFaceMesh
 66
     1
 10
0.0
 20
0.0
 30
0.0
 70
    64
 71
     4
 72
     2
1001
ACAD_MATERIAL_MAPPER
1070
     1
1070
     1
1070
     1
1011
0.0
1021
0.0
1031
0.0
1011
0.0
1021
-2.54
1031
0.0
1011
0.0
1021
0.0
1031
2.54
1011
1.0
1021
0.0
1031
0.0
  0
VERTEX
  5
BF
330
BE
100
AcDbEntity
  8
0
 62
     7
100
AcDbVertex
100
AcDbPolyFaceMeshVertex
 10
0.0
 20
0.3999999999999993
 30
96.80000000000001
 70
   192
  0
VERTEX
  5
C0
330
BE
100
AcDbEntity
  8
0
 62
     7
100
AcDbVertex
100
AcDbPolyFaceMeshVertex
 10
0.0
 20
0.0
 30
0.0
 70
   192
  0
VERTEX
  5
C1
330
BE
100
AcDbEntity
  8
0
 62
     7
100
AcDbVertex
100
AcDbPolyFaceMeshVertex
 10
0.0
 20
0.0
 30
96.80000000000001
 70
   192
  0
VERTEX
  5
C2
330
BE
100
AcDbEntity
  8
0
 62
     7
100
AcDbVertex
100
AcDbPolyFaceMeshVertex
 10
0.0
 20
0.3999999999999993
 30
0.0
 70
   192
  0
VERTEX
  5
C3
330
BE
100
AcDbEntity
  8
0
 62
     7
100
AcDbFaceRecord
 10
0.0
 20
0.0
 30
0.0
 70
   128
 71
    -1
 72
     2
 73
     3
  0
VERTEX
  5
C4
330
BE
100
AcDbEntity
  8
0
 62
     7
100
AcDbFaceRecord
 10
0.0
 20
0.0
 30
0.0
 70
   128
 71
    -2
 72
     1
 73
     4
  0
SEQEND
  5
C5
330
BE
100
AcDbEntity
  8
0
 62
     7
  0
LINE
  5
C6
330
76
100
AcDbEntity
  8
0
 62
     0
100
AcDbLine
 10
0.0
 20
0.0
 30
0.0
 11
0.0
 21
0.3999999999999993
 31
0.0
  0
LINE
  5
C7
330
76
100
AcDbEntity
  8
0
 62
     0
100
AcDbLine
 10
0.0
 20
0.0
 30
0.0
 11
0.0
 21
0.0
 31
96.80000000000001
  0
LINE
  5
C8
330
76
100
AcDbEntity
  8
0
 62
     0
100
AcDbLine
 10
0.0
 20
0.0
 30
96.80000000000001
 11
0.0
 21
0.3999999999999993
 31
96.80000000000001
  0
LINE
  5
C9
330
76
100
AcDbEntity
  8
0
 62
     0
100
AcDbLine
 10
0.0
 20
0.3999999999999993
 30
0.0
 11
0.0
 21
0.3999999999999993
 31
96.80000000000001
  0
POLYLINE
  5
CA
330
76
100
AcDbEntity
  8
0
 62
     7
100
AcDbPolyFaceMesh
 66
     1
 10
0.0
 20
0.0
 30
0.0
 70
    64
 71
     4
 72
     2
1001
ACAD_MATERIAL_MAPPER
1070
     1
1070
     1
1070
     1
1011
0.0
1021
0.0
1031
0.0
1011
-2.54
1021
0.0
1031
0.0
1011
0.0
1021
0.0
1031
2.54
1011
0.0
1021
1.0
1031
0.0
  0
VERTEX
  5
CB
330
CA
100
AcDbEntity
  8
0
 62
     7
100
AcDbVertex
100
AcDbPolyFaceMeshVertex
 10
0.0
 20
0.3999999999999993
 30
96.80000000000001
 70
   192
  0
VERTEX
  5
CC
330
CA
100
AcDbEntity
  8
0
 62
     7
100
AcDbVertex
100
AcDbPolyFaceMeshVertex
 10
62.04999999999999
 20
0.3999999999999993
 30
0.0
 70
   192
  0
VERTEX
  5
CD
330
CA
100
AcDbEntity
  8
0
 62
     7
100
AcDbVertex
100
AcDbPolyFaceMeshVertex
 10
0.0
 20
0.3999999999999993
 30
0.0
 70
   192
  0
VERTEX
  5
CE
330
CA
100
AcDbEntity
  8
0
 62
     7
100
AcDbVertex
100
AcDbPolyFaceMeshVertex
 10
62.04999999999999
 20
0.3999999999999993
 30
96.80000000000001
 70
   192
  0
VERTEX
  5
CF
330
CA
100
AcDbEntity
  8
0
 62
     7
100
AcDbFaceRecord
 10
0.0
 20
0.0
 30
0.0
 70
   128
 71
    -1
 72
     2
 73
     3
  0
VERTEX
  5
D0
330
CA
100
AcDbEntity
  8
0
 62
     7
100
AcDbFaceRecord
 10
0.0
 20
0.0
 30
0.0
 70
   128
 71
    -2
 72
     1
 73
     4
  0
SEQEND
  5
D1
330
CA
100
AcDbEntity
  8
0
 62
     7
  0
LINE
  5
D2
330
76
100
AcDbEntity
  8
0
 62
     0
100
AcDbLine
 10
0.0
 20
0.3999999999999993
 30
0.0
 11
62.04999999999999
 21
0.3999999999999993
 31
0.0
  0
LINE
  5
D3
330
76
100
AcDbEntity
  8
0
 62
     0
100
AcDbLine
 10
0.0
 20
0.3999999999999993
 30
0.0
 11
0.0
 21
0.3999999999999993
 31
96.80000000000001
  0
LINE
  5
D4
330
76
100
AcDbEntity
  8
0
 62
     0
100
AcDbLine
 10
0.0
 20
0.3999999999999993
 30
96.80000000000001
 11
62.04999999999999
 21
0.3999999999999993
 31
96.80000000000001
  0
LINE
  5
D5
330
76
100
AcDbEntity
  8
0
 62
     0
100
AcDbLine
 10
62.04999999999999
 20
0.3999999999999993
 30
0.0
 11
62.04999999999999
 21
0.3999999999999993
 31
96.80000000000001
  0
POLYLINE
  5
D6
330
76
100
AcDbEntity
  8
0
 62
     7
100
AcDbPolyFaceMesh
 66
     1
 10
0.0
 20
0.0
 30
0.0
 70
    64
 71
     4
 72
     2
1001
ACAD_MATERIAL_MAPPER
1070
     1
1070
     1
1070
     1
1011
0.0
1021
0.0
1031
0.0
1011
2.54
1021
0.0
1031
0.0
1011
0.0
1021
2.54
1031
0.0
1011
0.0
1021
0.0
1031
1.0
  0
VERTEX
  5
D7
330
D6
100
AcDbEntity
  8
0
 62
     7
100
AcDbVertex
100
AcDbPolyFaceMeshVertex
 10
62.04999999999999
 20
0.0
 30
96.80000000000001
 70
   192
  0
VERTEX
  5
D8
330
D6
100
AcDbEntity
  8
0
 62
     7
100
AcDbVertex
100
AcDbPolyFaceMeshVertex
 10
0.0
 20
0.3999999999999993
 30
96.80000000000001
 70
   192
  0
VERTEX
  5
D9
330
D6
100
AcDbEntity
  8
0
 62
     7
100
AcDbVertex
100
AcDbPolyFaceMeshVertex
 10
0.0
 20
0.0
 30
96.80000000000001
 70
   192
  0
VERTEX
  5
DA
330
D6
100
AcDbEntity
  8
0
 62
     7
100
AcDbVertex
100
AcDbPolyFaceMeshVertex
 10
62.04999999999999
 20
0.3999999999999993
 30
96.80000000000001
 70
   192
  0
VERTEX
  5
DB
330
D6
100
AcDbEntity
  8
0
 62
     7
100
AcDbFaceRecord
 10
0.0
 20
0.0
 30
0.0
 70
   128
 71
    -1
 72
     2
 73
     3
  0
VERTEX
  5
DC
330
D6
100
AcDbEntity
  8
0
 62
     7
100
AcDbFaceRecord
 10
0.0
 20
0.0
 30
0.0
 70
   128
 71
    -2
 72
     1
 73
     4
  0
SEQEND
  5
DD
330
D6
100
AcDbEntity
  8
0
 62
     7
  0
LINE
  5
DE
330
76
100
AcDbEntity
  8
0
 62
     0
100
AcDbLine
 10
62.04999999999999
 20
0.0
 30
96.80000000000001
 11
0.0
 21
0.0
 31
96.80000000000001
  0
LINE
  5
DF
330
76
100
AcDbEntity
  8
0
 62
     0
100
AcDbLine
 10
62.04999999999999
 20
0.3999999999999993
 30
96.80000000000001
 11
62.04999999999999
 21
0.0
 31
96.80000000000001
  0
LINE
  5
E0
330
76
100
AcDbEntity
  8
0
 62
     0
100
AcDbLine
 10
0.0
 20
0.3999999999999993
 30
96.80000000000001
 11
62.04999999999999
 21
0.3999999999999993
 31
96.80000000000001
  0
LINE
  5
E1
330
76
100
AcDbEntity
  8
0
 62
     0
100
AcDbLine
 10
0.0
 20
0.0
 30
96.80000000000001
 11
0.0
 21
0.3999999999999993
 31
96.80000000000001
  0
POLYLINE
  5
E2
330
76
100
AcDbEntity
  8
0
 62
     7
100
AcDbPolyFaceMesh
 66
     1
 10
0.0
 20
0.0
 30
0.0
 70
    64
 71
     4
 72
     2
1001
ACAD_MATERIAL_MAPPER
1070
     1
1070
     1
1070
     1
1011
0.0
1021
0.0
1031
0.0
1011
2.54
1021
0.0
1031
0.0
1011
0.0
1021
0.0
1031
2.54
1011
0.0
1021
1.0
1031
0.0
  0
VERTEX
  5
E3
330
E2
100
AcDbEntity
  8
0
 62
     7
100
AcDbVertex
100
AcDbPolyFaceMeshVertex
 10
62.04999999999999
 20
0.0
 30
96.80000000000001
 70
   192
  0
VERTEX
  5
E4
330
E2
100
AcDbEntity
  8
0
 62
     7
100
AcDbVertex
100
AcDbPolyFaceMeshVertex
 10
0.0
 20
0.0
 30
0.0
 70
   192
  0
VERTEX
  5
E5
330
E2
100
AcDbEntity
  8
0
 62
     7
100
AcDbVertex
100
AcDbPolyFaceMeshVertex
 10
62.04999999999999
 20
0.0
 30
0.0
 70
   192
  0
VERTEX
  5
E6
330
E2
100
AcDbEntity
  8
0
 62
     7
100
AcDbVertex
100
AcDbPolyFaceMeshVertex
 10
0.0
 20
0.0
 30
96.80000000000001
 70
   192
  0
VERTEX
  5
E7
330
E2
100
AcDbEntity
  8
0
 62
     7
100
AcDbFaceRecord
 10
0.0
 20
0.0
 30
0.0
 70
   128
 71
    -1
 72
     2
 73
     3
  0
VERTEX
  5
E8
330
E2
100
AcDbEntity
  8
0
 62
     7
100
AcDbFaceRecord
 10
0.0
 20
0.0
 30
0.0
 70
   128
 71
    -2
 72
     1
 73
     4
  0
SEQEND
  5
E9
330
E2
100
AcDbEntity
  8
0
 62
     7
  0
LINE
  5
EA
330
76
100
AcDbEntity
  8
0
 62
     0
100
AcDbLine
 10
62.04999999999999
 20
0.0
 30
0.0
 11
0.0
 21
0.0
 31
0.0
  0
LINE
  5
EB
330
76
100
AcDbEntity
  8
0
 62
     0
100
AcDbLine
 10
62.04999999999999
 20
0.0
 30
0.0
 11
62.04999999999999
 21
0.0
 31
96.80000000000001
  0
LINE
  5
EC
330
76
100
AcDbEntity
  8
0
 62
     0
100
AcDbLine
 10
62.04999999999999
 20
0.0
 30
96.80000000000001
 11
0.0
 21
0.0
 31
96.80000000000001
  0
LINE
  5
ED
330
76
100
AcDbEntity
  8
0
 62
     0
100
AcDbLine
 10
0.0
 20
0.0
 30
0.0
 11
0.0
 21
0.0
 31
96.80000000000001
  0
POLYLINE
  5
EE
330
76
100
AcDbEntity
  8
0
 62
     7
100
AcDbPolyFaceMesh
 66
     1
 10
0.0
 20
0.0
 30
0.0
 70
    64
 71
     4
 72
     2
1001
ACAD_MATERIAL_MAPPER
1070
     1
1070
     1
1070
     1
1011
0.0
1021
0.0
1031
0.0
1011
-2.54
1021
0.0
1031
0.0
1011
0.0
1021
2.54
1031
0.0
1011
0.0
1021
0.0
1031
1.0
  0
VERTEX
  5
EF
330
EE
100
AcDbEntity
  8
0
 62
     7
100
AcDbVertex
100
AcDbPolyFaceMeshVertex
 10
62.04999999999999
 20
0.3999999999999993
 30
0.0
 70
   192
  0
VERTEX
  5
F0
330
EE
100
AcDbEntity
  8
0
 62
     7
100
AcDbVertex
100
AcDbPolyFaceMeshVertex
 10
0.0
 20
0.0
 30
0.0
 70
   192
  0
VERTEX
  5
F1
330
EE
100
AcDbEntity
  8
0
 62
     7
100
AcDbVertex
100
AcDbPolyFaceMeshVertex
 10
0.0
 20
0.3999999999999993
 30
0.0
 70
   192
  0
VERTEX
  5
F2
330
EE
100
AcDbEntity
  8
0
 62
     7
100
AcDbVertex
100
AcDbPolyFaceMeshVertex
 10
62.04999999999999
 20
0.0
 30
0.0
 70
   192
  0
VERTEX
  5
F3
330
EE
100
AcDbEntity
  8
0
 62
     7
100
AcDbFaceRecord
 10
0.0
 20
0.0
 30
0.0
 70
   128
 71
    -1
 72
     2
 73
     3
  0
VERTEX
  5
F4
330
EE
100
AcDbEntity
  8
0
 62
     7
100
AcDbFaceRecord
 10
0.0
 20
0.0
 30
0.0
 70
   128
 71
    -2
 72
     1
 73
     4
  0
SEQEND
  5
F5
330
EE
100
AcDbEntity
  8
0
 62
     7
  0
LINE
  5
F6
330
76
100
AcDbEntity
  8
0
 62
     0
100
AcDbLine
 10
62.04999999999999
 20
0.0
 30
0.0
 11
0.0
 21
0.0
 31
0.0
  0
LINE
  5
F7
330
76
100
AcDbEntity
  8
0
 62
     0
100
AcDbLine
 10
0.0
 20
0.0
 30
0.0
 11
0.0
 21
0.3999999999999993
 31
0.0
  0
LINE
  5
F8
330
76
100
AcDbEntity
  8
0
 62
     0
100
AcDbLine
 10
0.0
 20
0.3999999999999993
 30
0.0
 11
62.04999999999999
 21
0.3999999999999993
 31
0.0
  0
LINE
  5
F9
330
76
100
AcDbEntity
  8
0
 62
     0
100
AcDbLine
 10
62.04999999999999
 20
0.3999999999999993
 30
0.0
 11
62.04999999999999
 21
0.0
 31
0.0
  0
POLYLINE
  5
FA
330
76
100
AcDbEntity
  8
0
 62
     7
100
AcDbPolyFaceMesh
 66
     1
 10
0.0
 20
0.0
 30
0.0
 70
    64
 71
     4
 72
     2
1001
ACAD_MATERIAL_MAPPER
1070
     1
1070
     1
1070
     1
1011
0.0
1021
0.0
1031
0.0
1011
0.0
1021
2.54
1031
0.0
1011
0.0
1021
0.0
1031
2.54
1011
1.0
1021
0.0
1031
0.0
  0
VERTEX
  5
FB
330
FA
100
AcDbEntity
  8
0
 62
     7
100
AcDbVertex
100
AcDbPolyFaceMeshVertex
 10
62.04999999999999
 20
0.3999999999999993
 30
0.0
 70
   192
  0
VERTEX
  5
FC
330
FA
100
AcDbEntity
  8
0
 62
     7
100
AcDbVertex
100
AcDbPolyFaceMeshVertex
 10
62.04999999999999
 20
0.0
 30
96.80000000000001
 70
   192
  0
VERTEX
  5
FD
330
FA
100
AcDbEntity
  8
0
 62
     7
100
AcDbVertex
100
AcDbPolyFaceMeshVertex
 10
62.04999999999999
 20
0.0
 30
0.0
 70
   192
  0
VERTEX
  5
FE
330
FA
100
AcDbEntity
  8
0
 62
     7
100
AcDbVertex
100
AcDbPolyFaceMeshVertex
 10
62.04999999999999
 20
0.3999999999999993
 30
96.80000000000001
 70
   192
  0
VERTEX
  5
FF
330
FA
100
AcDbEntity
  8
0
 62
     7
100
AcDbFaceRecord
 10
0.0
 20
0.0
 30
0.0
 70
   128
 71
    -1
 72
     2
 73
     3
  0
VERTEX
  5
100
330
FA
100
AcDbEntity
  8
0
 62
     7
100
AcDbFaceRecord
 10
0.0
 20
0.0
 30
0.0
 70
   128
 71
    -2
 72
     1
 73
     4
  0
SEQEND
  5
101
330
FA
100
AcDbEntity
  8
0
 62
     7
  0
LINE
  5
102
330
76
100
AcDbEntity
  8
0
 62
     0
100
AcDbLine
 10
62.04999999999999
 20
0.3999999999999993
 30
0.0
 11
62.04999999999999
 21
0.0
 31
0.0
  0
LINE
  5
103
330
76
100
AcDbEntity
  8
0
 62
     0
100
AcDbLine
 10
62.04999999999999
 20
0.3999999999999993
 30
0.0
 11
62.04999999999999
 21
0.3999999999999993
 31
96.80000000000001
  0
LINE
  5
104
330
76
100
AcDbEntity
  8
0
 62
     0
100
AcDbLine
 10
62.04999999999999
 20
0.3999999999999993
 30
96.80000000000001
 11
62.04999999999999
 21
0.0
 31
96.80000000000001
  0
LINE
  5
105
330
76
100
AcDbEntity
  8
0
 62
     0
100
AcDbLine
 10
62.04999999999999
 20
0.0
 30
0.0
 11
62.04999999999999
 21
0.0
 31
96.80000000000001
  0
ENDBLK
  5
78
330
76
100
AcDbEntity
  8
0
100
AcDbBlockEnd
  0
BLOCK
  5
7A
330
79
100
AcDbEntity
  8
0
100
AcDbBlockBegin
  2
GRUPO_2
 70
     0
 10
0.0
 20
0.0
 30
0.0
  3
GRUPO_2
  1

  0
POLYLINE
  5
106
330
79
100
AcDbEntity
  8
0
 62
     7
100
AcDbPolyFaceMesh
 66
     1
 10
0.0
 20
0.0
 30
0.0
 70
    64
 71
     4
 72
     2
1001
ACAD_MATERIAL_MAPPER
1070
     1
1070
     1
1070
     1
1011
0.0
1021
0.0
1031
0.0
1011
0.0
1021
-2.54
1031
0.0
1011
0.0
1021
0.0
1031
2.54
1011
1.0
1021
0.0
1031
0.0
  0
VERTEX
  5
107
330
106
100
AcDbEntity
  8
0
 62
     7
100
AcDbVertex
100
AcDbPolyFaceMeshVertex
 10
-0.2499999999999996
 20
0.3999999999999999
 30
96.80000000000001
 70
   192
  0
VERTEX
  5
108
330
106
100
AcDbEntity
  8
0
 62
     7
100
AcDbVertex
100
AcDbPolyFaceMeshVertex
 10
-0.2499999999999996
 20
0.0
 30
0.0
 70
   192
  0
VERTEX
  5
109
330
106
100
AcDbEntity
  8
0
 62
     7
100
AcDbVertex
100
AcDbPolyFaceMeshVertex
 10
-0.2499999999999996
 20
0.0
 30
96.80000000000001
 70
   192
  0
VERTEX
  5
10A
330
106
100
AcDbEntity
  8
0
 62
     7
100
AcDbVertex
100
AcDbPolyFaceMeshVertex
 10
-0.2499999999999996
 20
0.3999999999999999
 30
0.0
 70
   192
  0
VERTEX
  5
10B
330
106
100
AcDbEntity
  8
0
 62
     7
100
AcDbFaceRecord
 10
0.0
 20
0.0
 30
0.0
 70
   128
 71
    -1
 72
     2
 73
     3
  0
VERTEX
  5
10C
330
106
100
AcDbEntity
  8
0
 62
     7
100
AcDbFaceRecord
 10
0.0
 20
0.0
 30
0.0
 70
   128
 71
    -2
 72
     1
 73
     4
  0
SEQEND
  5
10D
330
106
100
AcDbEntity
  8
0
 62
     7
  0
LINE
  5
10E
330
79
100
AcDbEntity
  8
0
 62
     0
100
AcDbLine
 10
-0.2499999999999996
 20
0.0
 30
0.0
 11
-0.2499999999999996
 21
0.3999999999999999
 31
0.0
  0
LINE
  5
10F
330
79
100
AcDbEntity
  8
0
 62
     0
100
AcDbLine
 10
-0.2499999999999996
 20
0.0
 30
0.0
 11
-0.2499999999999996
 21
0.0
 31
96.80000000000001
  0
LINE
  5
110
330
79
100
AcDbEntity
  8
0
 62
     0
100
AcDbLine
 10
-0.2499999999999996
 20
0.0
 30
96.80000000000001
 11
-0.2499999999999996
 21
0.3999999999999999
 31
96.80000000000001
  0
LINE
  5
111
330
79
100
AcDbEntity
  8
0
 62
     0
100
AcDbLine
 10
-0.2499999999999996
 20
0.3999999999999999
 30
0.0
 11
-0.2499999999999996
 21
0.3999999999999999
 31
96.80000000000001
  0
POLYLINE
  5
112
330
79
100
AcDbEntity
  8
0
 62
     7
100
AcDbPolyFaceMesh
 66
     1
 10
0.0
 20
0.0
 30
0.0
 70
    64
 71
     4
 72
     2
1001
ACAD_MATERIAL_MAPPER
1070
     1
1070
     1
1070
     1
1011
0.0
1021
0.0
1031
0.0
1011
-2.54
1021
0.0
1031
0.0
1011
0.0
1021
0.0
1031
2.54
1011
0.0
1021
1.0
1031
0.0
  0
VERTEX
  5
113
330
112
100
AcDbEntity
  8
0
 62
     7
100
AcDbVertex
100
AcDbPolyFaceMeshVertex
 10
-0.2499999999999996
 20
0.3999999999999999
 30
96.80000000000001
 70
   192
  0
VERTEX
  5
114
330
112
100
AcDbEntity
  8
0
 62
     7
100
AcDbVertex
100
AcDbPolyFaceMeshVertex
 10
61.79999999999999
 20
0.3999999999999999
 30
0.0
 70
   192
  0
VERTEX
  5
115
330
112
100
AcDbEntity
  8
0
 62
     7
100
AcDbVertex
100
AcDbPolyFaceMeshVertex
 10
-0.2499999999999996
 20
0.3999999999999999
 30
0.0
 70
   192
  0
VERTEX
  5
116
330
112
100
AcDbEntity
  8
0
 62
     7
100
AcDbVertex
100
AcDbPolyFaceMeshVertex
 10
61.79999999999999
 20
0.3999999999999999
 30
96.80000000000001
 70
   192
  0
VERTEX
  5
117
330
112
100
AcDbEntity
  8
0
 62
     7
100
AcDbFaceRecord
 10
0.0
 20
0.0
 30
0.0
 70
   128
 71
    -1
 72
     2
 73
     3
  0
VERTEX
  5
118
330
112
100
AcDbEntity
  8
0
 62
     7
100
AcDbFaceRecord
 10
0.0
 20
0.0
 30
0.0
 70
   128
 71
    -2
 72
     1
 73
     4
  0
SEQEND
  5
119
330
112
100
AcDbEntity
  8
0
 62
     7
  0
LINE
  5
11A
330
79
100
AcDbEntity
  8
0
 62
     0
100
AcDbLine
 10
-0.2499999999999996
 20
0.3999999999999999
 30
0.0
 11
61.79999999999999
 21
0.3999999999999999
 31
0.0
  0
LINE
  5
11B
330
79
100
AcDbEntity
  8
0
 62
     0
100
AcDbLine
 10
-0.2499999999999996
 20
0.3999999999999999
 30
0.0
 11
-0.2499999999999996
 21
0.3999999999999999
 31
96.80000000000001
  0
LINE
  5
11C
330
79
100
AcDbEntity
  8
0
 62
     0
100
AcDbLine
 10
-0.2499999999999996
 20
0.3999999999999999
 30
96.80000000000001
 11
61.79999999999999
 21
0.3999999999999999
 31
96.80000000000001
  0
LINE
  5
11D
330
79
100
AcDbEntity
  8
0
 62
     0
100
AcDbLine
 10
61.79999999999999
 20
0.3999999999999999
 30
0.0
 11
61.79999999999999
 21
0.3999999999999999
 31
96.80000000000001
  0
POLYLINE
  5
11E
330
79
100
AcDbEntity
  8
0
 62
     7
100
AcDbPolyFaceMesh
 66
     1
 10
0.0
 20
0.0
 30
0.0
 70
    64
 71
     4
 72
     2
1001
ACAD_MATERIAL_MAPPER
1070
     1
1070
     1
1070
     1
1011
0.0
1021
0.0
1031
0.0
1011
2.54
1021
0.0
1031
0.0
1011
0.0
1021
2.54
1031
0.0
1011
0.0
1021
0.0
1031
1.0
  0
VERTEX
  5
11F
330
11E
100
AcDbEntity
  8
0
 62
     7
100
AcDbVertex
100
AcDbPolyFaceMeshVertex
 10
61.79999999999999
 20
0.0
 30
96.80000000000001
 70
   192
  0
VERTEX
  5
120
330
11E
100
AcDbEntity
  8
0
 62
     7
100
AcDbVertex
100
AcDbPolyFaceMeshVertex
 10
-0.2499999999999996
 20
0.3999999999999999
 30
96.80000000000001
 70
   192
  0
VERTEX
  5
121
330
11E
100
AcDbEntity
  8
0
 62
     7
100
AcDbVertex
100
AcDbPolyFaceMeshVertex
 10
-0.2499999999999996
 20
0.0
 30
96.80000000000001
 70
   192
  0
VERTEX
  5
122
330
11E
100
AcDbEntity
  8
0
 62
     7
100
AcDbVertex
100
AcDbPolyFaceMeshVertex
 10
61.79999999999999
 20
0.3999999999999999
 30
96.80000000000001
 70
   192
  0
VERTEX
  5
123
330
11E
100
AcDbEntity
  8
0
 62
     7
100
AcDbFaceRecord
 10
0.0
 20
0.0
 30
0.0
 70
   128
 71
    -1
 72
     2
 73
     3
  0
VERTEX
  5
124
330
11E
100
AcDbEntity
  8
0
 62
     7
100
AcDbFaceRecord
 10
0.0
 20
0.0
 30
0.0
 70
   128
 71
    -2
 72
     1
 73
     4
  0
SEQEND
  5
125
330
11E
100
AcDbEntity
  8
0
 62
     7
  0
LINE
  5
126
330
79
100
AcDbEntity
  8
0
 62
     0
100
AcDbLine
 10
61.79999999999999
 20
0.0
 30
96.80000000000001
 11
-0.2499999999999996
 21
0.0
 31
96.80000000000001
  0
LINE
  5
127
330
79
100
AcDbEntity
  8
0
 62
     0
100
AcDbLine
 10
61.79999999999999
 20
0.3999999999999999
 30
96.80000000000001
 11
61.79999999999999
 21
0.0
 31
96.80000000000001
  0
LINE
  5
128
330
79
100
AcDbEntity
  8
0
 62
     0
100
AcDbLine
 10
-0.2499999999999996
 20
0.3999999999999999
 30
96.80000000000001
 11
61.79999999999999
 21
0.3999999999999999
 31
96.80000000000001
  0
LINE
  5
129
330
79
100
AcDbEntity
  8
0
 62
     0
100
AcDbLine
 10
-0.2499999999999996
 20
0.0
 30
96.80000000000001
 11
-0.2499999999999996
 21
0.3999999999999999
 31
96.80000000000001
  0
POLYLINE
  5
12A
330
79
100
AcDbEntity
  8
0
 62
     7
100
AcDbPolyFaceMesh
 66
     1
 10
0.0
 20
0.0
 30
0.0
 70
    64
 71
     4
 72
     2
1001
ACAD_MATERIAL_MAPPER
1070
     1
1070
     1
1070
     1
1011
0.0
1021
0.0
1031
0.0
1011
2.54
1021
0.0
1031
0.0
1011
0.0
1021
0.0
1031
2.54
1011
0.0
1021
1.0
1031
0.0
  0
VERTEX
  5
12B
330
12A
100
AcDbEntity
  8
0
 62
     7
100
AcDbVertex
100
AcDbPolyFaceMeshVertex
 10
61.79999999999999
 20
0.0
 30
96.80000000000001
 70
   192
  0
VERTEX
  5
12C
330
12A
100
AcDbEntity
  8
0
 62
     7
100
AcDbVertex
100
AcDbPolyFaceMeshVertex
 10
-0.2499999999999996
 20
0.0
 30
0.0
 70
   192
  0
VERTEX
  5
12D
330
12A
100
AcDbEntity
  8
0
 62
     7
100
AcDbVertex
100
AcDbPolyFaceMeshVertex
 10
61.79999999999999
 20
0.0
 30
0.0
 70
   192
  0
VERTEX
  5
12E
330
12A
100
AcDbEntity
  8
0
 62
     7
100
AcDbVertex
100
AcDbPolyFaceMeshVertex
 10
-0.2499999999999996
 20
0.0
 30
96.80000000000001
 70
   192
  0
VERTEX
  5
12F
330
12A
100
AcDbEntity
  8
0
 62
     7
100
AcDbFaceRecord
 10
0.0
 20
0.0
 30
0.0
 70
   128
 71
    -1
 72
     2
 73
     3
  0
VERTEX
  5
130
330
12A
100
AcDbEntity
  8
0
 62
     7
100
AcDbFaceRecord
 10
0.0
 20
0.0
 30
0.0
 70
   128
 71
    -2
 72
     1
 73
     4
  0
SEQEND
  5
131
330
12A
100
AcDbEntity
  8
0
 62
     7
  0
LINE
  5
132
330
79
100
AcDbEntity
  8
0
 62
     0
100
AcDbLine
 10
61.79999999999999
 20
0.0
 30
0.0
 11
-0.2499999999999996
 21
0.0
 31
0.0
  0
LINE
  5
133
330
79
100
AcDbEntity
  8
0
 62
     0
100
AcDbLine
 10
61.79999999999999
 20
0.0
 30
0.0
 11
61.79999999999999
 21
0.0
 31
96.80000000000001
  0
LINE
  5
134
330
79
100
AcDbEntity
  8
0
 62
     0
100
AcDbLine
 10
61.79999999999999
 20
0.0
 30
96.80000000000001
 11
-0.2499999999999996
 21
0.0
 31
96.80000000000001
  0
LINE
  5
135
330
79
100
AcDbEntity
  8
0
 62
     0
100
AcDbLine
 10
-0.2499999999999996
 20
0.0
 30
0.0
 11
-0.2499999999999996
 21
0.0
 31
96.80000000000001
  0
POLYLINE
  5
136
330
79
100
AcDbEntity
  8
0
 62
     7
100
AcDbPolyFaceMesh
 66
     1
 10
0.0
 20
0.0
 30
0.0
 70
    64
 71
     4
 72
     2
1001
ACAD_MATERIAL_MAPPER
1070
     1
1070
     1
1070
     1
1011
0.0
1021
0.0
1031
0.0
1011
-2.54
1021
0.0
1031
0.0
1011
0.0
1021
2.54
1031
0.0
1011
0.0
1021
0.0
1031
1.0
  0
VERTEX
  5
137
330
136
100
AcDbEntity
  8
0
 62
     7
100
AcDbVertex
100
AcDbPolyFaceMeshVertex
 10
61.79999999999999
 20
0.3999999999999999
 30
0.0
 70
   192
  0
VERTEX
  5
138
330
136
100
AcDbEntity
  8
0
 62
     7
100
AcDbVertex
100
AcDbPolyFaceMeshVertex
 10
-0.2499999999999996
 20
0.0
 30
0.0
 70
   192
  0
VERTEX
  5
139
330
136
100
AcDbEntity
  8
0
 62
     7
100
AcDbVertex
100
AcDbPolyFaceMeshVertex
 10
-0.2499999999999996
 20
0.3999999999999999
 30
0.0
 70
   192
  0
VERTEX
  5
13A
330
136
100
AcDbEntity
  8
0
 62
     7
100
AcDbVertex
100
AcDbPolyFaceMeshVertex
 10
61.79999999999999
 20
0.0
 30
0.0
 70
   192
  0
VERTEX
  5
13B
330
136
100
AcDbEntity
  8
0
 62
     7
100
AcDbFaceRecord
 10
0.0
 20
0.0
 30
0.0
 70
   128
 71
    -1
 72
     2
 73
     3
  0
VERTEX
  5
13C
330
136
100
AcDbEntity
  8
0
 62
     7
100
AcDbFaceRecord
 10
0.0
 20
0.0
 30
0.0
 70
   128
 71
    -2
 72
     1
 73
     4
  0
SEQEND
  5
13D
330
136
100
AcDbEntity
  8
0
 62
     7
  0
LINE
  5
13E
330
79
100
AcDbEntity
  8
0
 62
     0
100
AcDbLine
 10
61.79999999999999
 20
0.0
 30
0.0
 11
-0.2499999999999996
 21
0.0
 31
0.0
  0
LINE
  5
13F
330
79
100
AcDbEntity
  8
0
 62
     0
100
AcDbLine
 10
-0.2499999999999996
 20
0.0
 30
0.0
 11
-0.2499999999999996
 21
0.3999999999999999
 31
0.0
  0
LINE
  5
140
330
79
100
AcDbEntity
  8
0
 62
     0
100
AcDbLine
 10
-0.2499999999999996
 20
0.3999999999999999
 30
0.0
 11
61.79999999999999
 21
0.3999999999999999
 31
0.0
  0
LINE
  5
141
330
79
100
AcDbEntity
  8
0
 62
     0
100
AcDbLine
 10
61.79999999999999
 20
0.3999999999999999
 30
0.0
 11
61.79999999999999
 21
0.0
 31
0.0
  0
POLYLINE
  5
142
330
79
100
AcDbEntity
  8
0
 62
     7
100
AcDbPolyFaceMesh
 66
     1
 10
0.0
 20
0.0
 30
0.0
 70
    64
 71
     4
 72
     2
1001
ACAD_MATERIAL_MAPPER
1070
     1
1070
     1
1070
     1
1011
0.0
1021
0.0
1031
0.0
1011
0.0
1021
2.54
1031
0.0
1011
0.0
1021
0.0
1031
2.54
1011
1.0
1021
0.0
1031
0.0
  0
VERTEX
  5
143
330
142
100
AcDbEntity
  8
0
 62
     7
100
AcDbVertex
100
AcDbPolyFaceMeshVertex
 10
61.79999999999999
 20
0.3999999999999999
 30
0.0
 70
   192
  0
VERTEX
  5
144
330
142
100
AcDbEntity
  8
0
 62
     7
100
AcDbVertex
100
AcDbPolyFaceMeshVertex
 10
61.79999999999999
 20
0.0
 30
96.80000000000001
 70
   192
  0
VERTEX
  5
145
330
142
100
AcDbEntity
  8
0
 62
     7
100
AcDbVertex
100
AcDbPolyFaceMeshVertex
 10
61.79999999999999
 20
0.0
 30
0.0
 70
   192
  0
VERTEX
  5
146
330
142
100
AcDbEntity
  8
0
 62
     7
100
AcDbVertex
100
AcDbPolyFaceMeshVertex
 10
61.79999999999999
 20
0.3999999999999999
 30
96.80000000000001
 70
   192
  0
VERTEX
  5
147
330
142
100
AcDbEntity
  8
0
 62
     7
100
AcDbFaceRecord
 10
0.0
 20
0.0
 30
0.0
 70
   128
 71
    -1
 72
     2
 73
     3
  0
VERTEX
  5
148
330
142
100
AcDbEntity
  8
0
 62
     7
100
AcDbFaceRecord
 10
0.0
 20
0.0
 30
0.0
 70
   128
 71
    -2
 72
     1
 73
     4
  0
SEQEND
  5
149
330
142
100
AcDbEntity
  8
0
 62
     7
  0
LINE
  5
14A
330
79
100
AcDbEntity
  8
0
 62
     0
100
AcDbLine
 10
61.79999999999999
 20
0.3999999999999999
 30
0.0
 11
61.79999999999999
 21
0.0
 31
0.0
  0
LINE
  5
14B
330
79
100
AcDbEntity
  8
0
 62
     0
100
AcDbLine
 10
61.79999999999999
 20
0.3999999999999999
 30
0.0
 11
61.79999999999999
 21
0.3999999999999999
 31
96.80000000000001
  0
LINE
  5
14C
330
79
100
AcDbEntity
  8
0
 62
     0
100
AcDbLine
 10
61.79999999999999
 20
0.3999999999999999
 30
96.80000000000001
 11
61.79999999999999
 21
0.0
 31
96.80000000000001
  0
LINE
  5
14D
330
79
100
AcDbEntity
  8
0
 62
     0
100
AcDbLine
 10
61.79999999999999
 20
0.0
 30
0.0
 11
61.79999999999999
 21
0.0
 31
96.80000000000001
  0
ENDBLK
  5
7B
330
79
100
AcDbEntity
  8
0
100
AcDbBlockEnd
  0
ENDSEC
  0
SECTION
  2
ENTITIES
  0
POLYLINE
  5
14E
330
1F
100
AcDbEntity
  8
0
 62
     0
100
AcDbPolyFaceMesh
 66
     1
 10
0.0
 20
0.0
 30
0.0
 70
    64
 71
     4
 72
     2
1001
ACAD_MATERIAL_MAPPER
1070
     1
1070
     1
1070
     1
1011
0.0
1021
0.0
1031
0.0
1011
0.0
1021
2.54
1031
0.0
1011
0.0
1021
0.0
1031
2.54
1011
1.0
1021
0.0
1031
0.0
  0
VERTEX
  5
14F
330
14E
100
AcDbEntity
  8
0
 62
     0
100
AcDbVertex
100
AcDbPolyFaceMeshVertex
 10
137.9999999999999
 20
9.500000000000131
 30
0.0
 70
   192
  0
VERTEX
  5
150
330
14E
100
AcDbEntity
  8
0
 62
     0
100
AcDbVertex
100
AcDbPolyFaceMeshVertex
 10
137.9999999999999
 20
0.0000000000001251
 30
108.0
 70
   192
  0
VERTEX
  5
151
330
14E
100
AcDbEntity
  8
0
 62
     0
100
AcDbVertex
100
AcDbPolyFaceMeshVertex
 10
137.9999999999999
 20
0.0000000000001251
 30
0.0
 70
   192
  0
VERTEX
  5
152
330
14E
100
AcDbEntity
  8
0
 62
     0
100
AcDbVertex
100
AcDbPolyFaceMeshVertex
 10
137.9999999999999
 20
9.500000000000131
 30
108.0
 70
   192
  0
VERTEX
  5
153
330
14E
100
AcDbEntity
  8
0
 62
     0
100
AcDbFaceRecord
 10
0.0
 20
0.0
 30
0.0
 70
   128
 71
    -1
 72
     2
 73
     3
  0
VERTEX
  5
154
330
14E
100
AcDbEntity
  8
0
 62
     0
100
AcDbFaceRecord
 10
0.0
 20
0.0
 30
0.0
 70
   128
 71
    -2
 72
     1
 73
     4
  0
SEQEND
  5
155
330
14E
100
AcDbEntity
  8
0
 62
     0
  0
LINE
  5
156
330
1F
100
AcDbEntity
  8
0
 62
     0
100
AcDbLine
 10
137.9999999999999
 20
9.500000000000131
 30
0.0
 11
137.9999999999999
 21
0.0000000000001251
 31
0.0
  0
LINE
  5
157
330
1F
100
AcDbEntity
  8
0
 62
     0
100
AcDbLine
 10
137.9999999999999
 20
9.500000000000131
 30
0.0
 11
137.9999999999999
 21
9.500000000000131
 31
108.0
  0
LINE
  5
158
330
1F
100
AcDbEntity
  8
0
 62
     0
100
AcDbLine
 10
137.9999999999999
 20
9.500000000000131
 30
108.0
 11
137.9999999999999
 21
0.0000000000001251
 31
108.0
  0
LINE
  5
159
330
1F
100
AcDbEntity
  8
0
 62
     0
100
AcDbLine
 10
137.9999999999999
 20
0.0000000000001251
 30
0.0
 11
137.9999999999999
 21
0.0000000000001251
 31
108.0
  0
POLYLINE
  5
15A
330
1F
100
AcDbEntity
  8
0
 62
     0
100
AcDbPolyFaceMesh
 66
     1
 10
0.0
 20
0.0
 30
0.0
 70
    64
 71
     6
 72
     4
1001
ACAD_MATERIAL_MAPPER
1070
     1
1070
     1
1070
     1
1011
-0.0000000000000003
1021
0.0
1031
0.0
1011
2.539999999999999
1021
0.0
1031
0.0
1011
0.000000000000001
1021
2.54
1031
0.0
1011
-0.0000000000000003
1021
0.0
1031
1.0
  0
VERTEX
  5
15B
330
15A
100
AcDbEntity
  8
0
 62
     0
100
AcDbVertex
100
AcDbPolyFaceMeshVertex
 10
136.0
 20
0.0000000000001233
 30
2.0
 70
   192
  0
VERTEX
  5
15C
330
15A
100
AcDbEntity
  8
0
 62
     0
100
AcDbVertex
100
AcDbPolyFaceMeshVertex
 10
2.000000000000159
 20
0.5000000000019664
 30
2.0
 70
   192
  0
VERTEX
  5
15D
330
15A
100
AcDbEntity
  8
0
 62
     0
100
AcDbVertex
100
AcDbPolyFaceMeshVertex
 10
2.000000000000087
 20
0.0000000000023136
 30
2.0
 70
   192
  0
VERTEX
  5
15E
330
15A
100
AcDbEntity
  8
0
 62
     0
100
AcDbVertex
100
AcDbPolyFaceMeshVertex
 10
71.25000000000023
 20
0.5000000000020283
 30
2.0
 70
   192
  0
VERTEX
  5
15F
330
15A
100
AcDbEntity
  8
0
 62
     0
100
AcDbVertex
100
AcDbPolyFaceMeshVertex
 10
71.25000000000023
 20
5.000000000002088
 30
2.0
 70
   192
  0
VERTEX
  5
160
330
15A
100
AcDbEntity
  8
0
 62
     0
100
AcDbVertex
100
AcDbPolyFaceMeshVertex
 10
136.0000000000001
 20
5.000000000002063
 30
2.0
 70
   192
  0
VERTEX
  5
161
330
15A
100
AcDbEntity
  8
0
 62
     0
100
AcDbFaceRecord
 10
0.0
 20
0.0
 30
0.0
 70
   128
 71
    -1
 72
     2
 73
     3
  0
VERTEX
  5
162
330
15A
100
AcDbEntity
  8
0
 62
     0
100
AcDbFaceRecord
 10
0.0
 20
0.0
 30
0.0
 70
   128
 71
    -2
 72
    -1
 73
     4
  0
VERTEX
  5
163
330
15A
100
AcDbEntity
  8
0
 62
     0
100
AcDbFaceRecord
 10
0.0
 20
0.0
 30
0.0
 70
   128
 71
    -4
 72
    -1
 73
     5
  0
VERTEX
  5
164
330
15A
100
AcDbEntity
  8
0
 62
     0
100
AcDbFaceRecord
 10
0.0
 20
0.0
 30
0.0
 70
   128
 71
    -5
 72
     1
 73
     6
  0
SEQEND
  5
165
330
15A
100
AcDbEntity
  8
0
 62
     0
  0
LINE
  5
166
330
1F
100
AcDbEntity
  8
0
 62
     0
100
AcDbLine
 10
136.0000000000001
 20
5.000000000002063
 30
2.0
 11
71.25000000000023
 21
5.000000000002088
 31
2.0
  0
LINE
  5
167
330
1F
100
AcDbEntity
  8
0
 62
     0
100
AcDbLine
 10
71.25000000000023
 20
5.000000000002088
 30
2.0
 11
71.25000000000023
 21
0.5000000000020283
 31
2.0
  0
LINE
  5
168
330
1F
100
AcDbEntity
  8
0
 62
     0
100
AcDbLine
 10
71.25000000000023
 20
0.5000000000020283
 30
2.0
 11
2.000000000000159
 21
0.5000000000019664
 31
2.0
  0
LINE
  5
169
330
1F
100
AcDbEntity
  8
0
 62
     0
100
AcDbLine
 10
2.000000000000159
 20
0.5000000000019664
 30
2.0
 11
2.000000000000087
 21
0.0000000000023136
 31
2.0
  0
LINE
  5
16A
330
1F
100
AcDbEntity
  8
0
 62
     0
100
AcDbLine
 10
2.000000000000087
 20
0.0000000000023136
 30
2.0
 11
136.0
 21
0.0000000000001233
 31
2.0
  0
LINE
  5
16B
330
1F
100
AcDbEntity
  8
0
 62
     0
100
AcDbLine
 10
136.0
 20
0.0000000000001233
 30
2.0
 11
136.0000000000001
 21
5.000000000002063
 31
2.0
  0
POLYLINE
  5
16C
330
1F
100
AcDbEntity
  8
0
 62
     0
100
AcDbPolyFaceMesh
 66
     1
 10
0.0
 20
0.0
 30
0.0
 70
    64
 71
     4
 72
     2
1001
ACAD_MATERIAL_MAPPER
1070
     1
1070
     1
1070
     1
1011
0.0
1021
-0.0000000000026999
1031
0.0000000000000822
1011
0.0
1021
-2.5400000000027
1031
0.0000000000000822
1011
0.0
1021
-0.0000000000026999
1031
2.540000000000082
1011
1.0
1021
-0.0000000000026999
1031
0.0000000000000822
  0
VERTEX
  5
16D
330
16C
100
AcDbEntity
  8
0
 62
     0
100
AcDbVertex
100
AcDbPolyFaceMeshVertex
 10
135.9999999999999
 20
0.0000000000001233
 30
106.0
 70
   192
  0
VERTEX
  5
16E
330
16C
100
AcDbEntity
  8
0
 62
     0
100
AcDbVertex
100
AcDbPolyFaceMeshVertex
 10
136.0000000000001
 20
5.000000000002063
 30
2.0
 70
   192
  0
VERTEX
  5
16F
330
16C
100
AcDbEntity
  8
0
 62
     0
100
AcDbVertex
100
AcDbPolyFaceMeshVertex
 10
136.0
 20
0.0000000000001233
 30
2.0
 70
   192
  0
VERTEX
  5
170
330
16C
100
AcDbEntity
  8
0
 62
     0
100
AcDbVertex
100
AcDbPolyFaceMeshVertex
 10
136.0000000000001
 20
5.000000000002063
 30
106.0
 70
   192
  0
VERTEX
  5
171
330
16C
100
AcDbEntity
  8
0
 62
     0
100
AcDbFaceRecord
 10
0.0
 20
0.0
 30
0.0
 70
   128
 71
    -1
 72
     2
 73
     3
  0
VERTEX
  5
172
330
16C
100
AcDbEntity
  8
0
 62
     0
100
AcDbFaceRecord
 10
0.0
 20
0.0
 30
0.0
 70
   128
 71
    -2
 72
     1
 73
     4
  0
SEQEND
  5
173
330
16C
100
AcDbEntity
  8
0
 62
     0
  0
LINE
  5
174
330
1F
100
AcDbEntity
  8
0
 62
     0
100
AcDbLine
 10
136.0
 20
0.0000000000001233
 30
2.0
 11
135.9999999999999
 21
0.0000000000001233
 31
106.0
  0
LINE
  5
175
330
1F
100
AcDbEntity
  8
0
 62
     0
100
AcDbLine
 10
135.9999999999999
 20
0.0000000000001233
 30
106.0
 11
136.0000000000001
 21
5.000000000002063
 31
106.0
  0
LINE
  5
176
330
1F
100
AcDbEntity
  8
0
 62
     0
100
AcDbLine
 10
136.0000000000001
 20
5.000000000002063
 30
2.0
 11
136.0000000000001
 21
5.000000000002063
 31
106.0
  0
LINE
  5
177
330
1F
100
AcDbEntity
  8
0
 62
     0
100
AcDbLine
 10
136.0
 20
0.0000000000001233
 30
2.0
 11
136.0000000000001
 21
5.000000000002063
 31
2.0
  0
POLYLINE
  5
178
330
1F
100
AcDbEntity
  8
0
 62
     0
100
AcDbPolyFaceMesh
 66
     1
 10
0.0
 20
0.0
 30
0.0
 70
    64
 71
     6
 72
     4
1001
ACAD_MATERIAL_MAPPER
1070
     1
1070
     1
1070
     1
1011
0.0
1021
-0.0000000000002769
1031
0.0
1011
-2.54
1021
-0.0000000000002769
1031
0.0
1011
0.0
1021
2.539999999999723
1031
0.0
1011
0.0
1021
-0.0000000000002769
1031
1.0
  0
VERTEX
  5
179
330
178
100
AcDbEntity
  8
0
 62
     0
100
AcDbVertex
100
AcDbPolyFaceMeshVertex
 10
136.0000000000001
 20
5.000000000002063
 30
106.0
 70
   192
  0
VERTEX
  5
17A
330
178
100
AcDbEntity
  8
0
 62
     0
100
AcDbVertex
100
AcDbPolyFaceMeshVertex
 10
71.25000000000023
 20
0.5000000000020283
 30
106.0
 70
   192
  0
VERTEX
  5
17B
330
178
100
AcDbEntity
  8
0
 62
     0
100
AcDbVertex
100
AcDbPolyFaceMeshVertex
 10
71.25000000000023
 20
5.000000000002088
 30
106.0
 70
   192
  0
VERTEX
  5
17C
330
178
100
AcDbEntity
  8
0
 62
     0
100
AcDbVertex
100
AcDbPolyFaceMeshVertex
 10
135.9999999999999
 20
0.0000000000001233
 30
106.0
 70
   192
  0
VERTEX
  5
17D
330
178
100
AcDbEntity
  8
0
 62
     0
100
AcDbVertex
100
AcDbPolyFaceMeshVertex
 10
2.000000000000159
 20
0.5000000000019664
 30
106.0
 70
   192
  0
VERTEX
  5
17E
330
178
100
AcDbEntity
  8
0
 62
     0
100
AcDbVertex
100
AcDbPolyFaceMeshVertex
 10
2.000000000000087
 20
0.0000000000000035
 30
106.0
 70
   192
  0
VERTEX
  5
17F
330
178
100
AcDbEntity
  8
0
 62
     0
100
AcDbFaceRecord
 10
0.0
 20
0.0
 30
0.0
 70
   128
 71
    -1
 72
     2
 73
     3
  0
VERTEX
  5
180
330
178
100
AcDbEntity
  8
0
 62
     0
100
AcDbFaceRecord
 10
0.0
 20
0.0
 30
0.0
 70
   128
 71
    -2
 72
     1
 73
    -4
  0
VERTEX
  5
181
330
178
100
AcDbEntity
  8
0
 62
     0
100
AcDbFaceRecord
 10
0.0
 20
0.0
 30
0.0
 70
   128
 71
    -5
 72
     4
 73
     6
  0
VERTEX
  5
182
330
178
100
AcDbEntity
  8
0
 62
     0
100
AcDbFaceRecord
 10
0.0
 20
0.0
 30
0.0
 70
   128
 71
    -4
 72
     5
 73
    -2
  0
SEQEND
  5
183
330
178
100
AcDbEntity
  8
0
 62
     0
  0
LINE
  5
184
330
1F
100
AcDbEntity
  8
0
 62
     0
100
AcDbLine
 10
2.000000000000159
 20
0.5000000000019664
 30
106.0
 11
2.000000000000087
 21
0.0000000000000035
 31
106.0
  0
LINE
  5
185
330
1F
100
AcDbEntity
  8
0
 62
     0
100
AcDbLine
 10
71.25000000000023
 20
0.5000000000020283
 30
106.0
 11
2.000000000000159
 21
0.5000000000019664
 31
106.0
  0
LINE
  5
186
330
1F
100
AcDbEntity
  8
0
 62
     0
100
AcDbLine
 10
71.25000000000023
 20
5.000000000002088
 30
106.0
 11
71.25000000000023
 21
0.5000000000020283
 31
106.0
  0
LINE
  5
187
330
1F
100
AcDbEntity
  8
0
 62
     0
100
AcDbLine
 10
136.0000000000001
 20
5.000000000002063
 30
106.0
 11
71.25000000000023
 21
5.000000000002088
 31
106.0
  0
LINE
  5
188
330
1F
100
AcDbEntity
  8
0
 62
     0
100
AcDbLine
 10
135.9999999999999
 20
0.0000000000001233
 30
106.0
 11
136.0000000000001
 21
5.000000000002063
 31
106.0
  0
LINE
  5
189
330
1F
100
AcDbEntity
  8
0
 62
     0
100
AcDbLine
 10
2.000000000000087
 20
0.0000000000000035
 30
106.0
 11
135.9999999999999
 21
0.0000000000001233
 31
106.0
  0
POLYLINE
  5
18A
330
1F
100
AcDbEntity
  8
0
 62
     0
100
AcDbPolyFaceMesh
 66
     1
 10
0.0
 20
0.0
 30
0.0
 70
    64
 71
    10
 72
    10
1001
ACAD_MATERIAL_MAPPER
1070
     1
1070
     1
1070
     1
1011
0.0000000000001257
1021
0.0
1031
0.0
1011
-2.539999999999874
1021
0.0
1031
0.0
1011
0.0000000000001257
1021
0.0
1031
2.54
1011
0.0000000000001257
1021
1.0
1031
0.0
  0
VERTEX
  5
18B
330
18A
100
AcDbEntity
  8
0
 62
     0
100
AcDbVertex
100
AcDbPolyFaceMeshVertex
 10
0.0000000000000006
 20
9.500000000001958
 30
0.0
 70
   192
  0
VERTEX
  5
18C
330
18A
100
AcDbEntity
  8
0
 62
     0
100
AcDbVertex
100
AcDbPolyFaceMeshVertex
 10
2.000000000000087
 20
9.500000000001958
 30
2.0
 70
   192
  0
VERTEX
  5
18D
330
18A
100
AcDbEntity
  8
0
 62
     0
100
AcDbVertex
100
AcDbPolyFaceMeshVertex
 10
137.9999999999999
 20
9.500000000000131
 30
0.0
 70
   192
  0
VERTEX
  5
18E
330
18A
100
AcDbEntity
  8
0
 62
     0
100
AcDbVertex
100
AcDbPolyFaceMeshVertex
 10
0.0000000000000006
 20
9.500000000001958
 30
107.9999999999999
 70
   192
  0
VERTEX
  5
18F
330
18A
100
AcDbEntity
  8
0
 62
     0
100
AcDbVertex
100
AcDbPolyFaceMeshVertex
 10
2.000000000000087
 20
9.499999999999648
 30
106.0
 70
   192
  0
VERTEX
  5
190
330
18A
100
AcDbEntity
  8
0
 62
     0
100
AcDbVertex
100
AcDbPolyFaceMeshVertex
 10
66.75000000000013
 20
9.50000000000206
 30
106.0
 70
   192
  0
VERTEX
  5
191
330
18A
100
AcDbEntity
  8
0
 62
     0
100
AcDbVertex
100
AcDbPolyFaceMeshVertex
 10
135.9999999999998
 20
9.500000000000128
 30
2.0
 70
   192
  0
VERTEX
  5
192
330
18A
100
AcDbEntity
  8
0
 62
     0
100
AcDbVertex
100
AcDbPolyFaceMeshVertex
 10
137.9999999999999
 20
9.500000000000131
 30
108.0
 70
   192
  0
VERTEX
  5
193
330
18A
100
AcDbEntity
  8
0
 62
     0
100
AcDbVertex
100
AcDbPolyFaceMeshVertex
 10
66.75000000000013
 20
9.50000000000206
 30
2.0
 70
   192
  0
VERTEX
  5
194
330
18A
100
AcDbEntity
  8
0
 62
     0
100
AcDbVertex
100
AcDbPolyFaceMeshVertex
 10
135.9999999999998
 20
9.499999999999767
 30
106.0
 70
   192
  0
VERTEX
  5
195
330
18A
100
AcDbEntity
  8
0
 62
     0
100
AcDbFaceRecord
 10
0.0
 20
0.0
 30
0.0
 70
   128
 71
    -1
 72
    -2
 73
     3
  0
VERTEX
  5
196
330
18A
100
AcDbEntity
  8
0
 62
     0
100
AcDbFaceRecord
 10
0.0
 20
0.0
 30
0.0
 70
   128
 71
    -2
 72
     1
 73
    -4
  0
VERTEX
  5
197
330
18A
100
AcDbEntity
  8
0
 62
     0
100
AcDbFaceRecord
 10
0.0
 20
0.0
 30
0.0
 70
   128
 71
    -2
 72
    -4
 73
     5
  0
VERTEX
  5
198
330
18A
100
AcDbEntity
  8
0
 62
     0
100
AcDbFaceRecord
 10
0.0
 20
0.0
 30
0.0
 70
   128
 71
    -5
 72
    -4
 73
     6
  0
VERTEX
  5
199
330
18A
100
AcDbEntity
  8
0
 62
     0
100
AcDbFaceRecord
 10
0.0
 20
0.0
 30
0.0
 70
   128
 71
    -3
 72
    -7
 73
     8
  0
VERTEX
  5
19A
330
18A
100
AcDbEntity
  8
0
 62
     0
100
AcDbFaceRecord
 10
0.0
 20
0.0
 30
0.0
 70
   128
 71
    -7
 72
    -3
 73
    -2
  0
VERTEX
  5
19B
330
18A
100
AcDbEntity
  8
0
 62
     0
100
AcDbFaceRecord
 10
0.0
 20
0.0
 30
0.0
 70
   128
 71
    -7
 72
     2
 73
     9
  0
VERTEX
  5
19C
330
18A
100
AcDbEntity
  8
0
 62
     0
100
AcDbFaceRecord
 10
0.0
 20
0.0
 30
0.0
 70
   128
 71
    -8
 72
     7
 73
   -10
  0
VERTEX
  5
19D
330
18A
100
AcDbEntity
  8
0
 62
     0
100
AcDbFaceRecord
 10
0.0
 20
0.0
 30
0.0
 70
   128
 71
    -8
 72
    10
 73
    -6
  0
VERTEX
  5
19E
330
18A
100
AcDbEntity
  8
0
 62
     0
100
AcDbFaceRecord
 10
0.0
 20
0.0
 30
0.0
 70
   128
 71
    -8
 72
    -6
 73
     4
  0
SEQEND
  5
19F
330
18A
100
AcDbEntity
  8
0
 62
     0
  0
LINE
  5
1A0
330
1F
100
AcDbEntity
  8
0
 62
     0
100
AcDbLine
 10
0.0000000000000006
 20
9.500000000001958
 30
0.0
 11
137.9999999999999
 21
9.500000000000131
 31
0.0
  0
LINE
  5
1A1
330
1F
100
AcDbEntity
  8
0
 62
     0
100
AcDbLine
 10
0.0000000000000006
 20
9.500000000001958
 30
0.0
 11
0.0000000000000006
 21
9.500000000001958
 31
107.9999999999999
  0
LINE
  5
1A2
330
1F
100
AcDbEntity
  8
0
 62
     0
100
AcDbLine
 10
0.0000000000000006
 20
9.500000000001958
 30
107.9999999999999
 11
137.9999999999999
 21
9.500000000000131
 31
108.0
  0
LINE
  5
1A3
330
1F
100
AcDbEntity
  8
0
 62
     0
100
AcDbLine
 10
137.9999999999999
 20
9.500000000000131
 30
0.0
 11
137.9999999999999
 21
9.500000000000131
 31
108.0
  0
LINE
  5
1A4
330
1F
100
AcDbEntity
  8
0
 62
     0
100
AcDbLine
 10
2.000000000000087
 20
9.500000000001958
 30
2.0
 11
2.000000000000087
 21
9.499999999999648
 31
106.0
  0
LINE
  5
1A5
330
1F
100
AcDbEntity
  8
0
 62
     0
100
AcDbLine
 10
66.75000000000013
 20
9.50000000000206
 30
2.0
 11
2.000000000000087
 21
9.500000000001958
 31
2.0
  0
LINE
  5
1A6
330
1F
100
AcDbEntity
  8
0
 62
     0
100
AcDbLine
 10
135.9999999999998
 20
9.500000000000128
 30
2.0
 11
66.75000000000013
 21
9.50000000000206
 31
2.0
  0
LINE
  5
1A7
330
1F
100
AcDbEntity
  8
0
 62
     0
100
AcDbLine
 10
135.9999999999998
 20
9.500000000000128
 30
2.0
 11
135.9999999999998
 21
9.499999999999767
 31
106.0
  0
LINE
  5
1A8
330
1F
100
AcDbEntity
  8
0
 62
     0
100
AcDbLine
 10
135.9999999999998
 20
9.499999999999767
 30
106.0
 11
66.75000000000013
 21
9.50000000000206
 31
106.0
  0
LINE
  5
1A9
330
1F
100
AcDbEntity
  8
0
 62
     0
100
AcDbLine
 10
66.75000000000013
 20
9.50000000000206
 30
106.0
 11
2.000000000000087
 21
9.499999999999648
 31
106.0
  0
POLYLINE
  5
1AA
330
1F
100
AcDbEntity
  8
0
 62
     0
100
AcDbPolyFaceMesh
 66
     1
 10
0.0
 20
0.0
 30
0.0
 70
    64
 71
     4
 72
     2
1001
ACAD_MATERIAL_MAPPER
1070
     1
1070
     1
1070
     1
1011
0.0
1021
0.0
1031
0.0
1011
0.0
1021
-2.54
1031
0.0
1011
0.0
1021
0.0
1031
2.54
1011
1.0
1021
0.0
1031
0.0
  0
VERTEX
  5
1AB
330
1AA
100
AcDbEntity
  8
0
 62
     0
100
AcDbVertex
100
AcDbPolyFaceMeshVertex
 10
0.0000000000000006
 20
9.500000000001958
 30
107.9999999999999
 70
   192
  0
VERTEX
  5
1AC
330
1AA
100
AcDbEntity
  8
0
 62
     0
100
AcDbVertex
100
AcDbPolyFaceMeshVertex
 10
0.0000000000000006
 20
0.0000000000019508
 30
0.0
 70
   192
  0
VERTEX
  5
1AD
330
1AA
100
AcDbEntity
  8
0
 62
     0
100
AcDbVertex
100
AcDbPolyFaceMeshVertex
 10
0.0000000000000006
 20
0.0000000000019508
 30
107.9999999999999
 70
   192
  0
VERTEX
  5
1AE
330
1AA
100
AcDbEntity
  8
0
 62
     0
100
AcDbVertex
100
AcDbPolyFaceMeshVertex
 10
0.0000000000000006
 20
9.500000000001958
 30
0.0
 70
   192
  0
VERTEX
  5
1AF
330
1AA
100
AcDbEntity
  8
0
 62
     0
100
AcDbFaceRecord
 10
0.0
 20
0.0
 30
0.0
 70
   128
 71
    -1
 72
     2
 73
     3
  0
VERTEX
  5
1B0
330
1AA
100
AcDbEntity
  8
0
 62
     0
100
AcDbFaceRecord
 10
0.0
 20
0.0
 30
0.0
 70
   128
 71
    -2
 72
     1
 73
     4
  0
SEQEND
  5
1B1
330
1AA
100
AcDbEntity
  8
0
 62
     0
  0
LINE
  5
1B2
330
1F
100
AcDbEntity
  8
0
 62
     0
100
AcDbLine
 10
0.0000000000000006
 20
0.0000000000019508
 30
0.0
 11
0.0000000000000006
 21
9.500000000001958
 31
0.0
  0
LINE
  5
1B3
330
1F
100
AcDbEntity
  8
0
 62
     0
100
AcDbLine
 10
0.0000000000000006
 20
0.0000000000019508
 30
0.0
 11
0.0000000000000006
 21
0.0000000000019508
 31
107.9999999999999
  0
LINE
  5
1B4
330
1F
100
AcDbEntity
  8
0
 62
     0
100
AcDbLine
 10
0.0000000000000006
 20
0.0000000000019508
 30
107.9999999999999
 11
0.0000000000000006
 21
9.500000000001958
 31
107.9999999999999
  0
LINE
  5
1B5
330
1F
100
AcDbEntity
  8
0
 62
     0
100
AcDbLine
 10
0.0000000000000006
 20
9.500000000001958
 30
0.0
 11
0.0000000000000006
 21
9.500000000001958
 31
107.9999999999999
  0
POLYLINE
  5
1B6
330
1F
100
AcDbEntity
  8
0
 62
     0
100
AcDbPolyFaceMesh
 66
     1
 10
0.0
 20
0.0
 30
0.0
 70
    64
 71
     4
 72
     2
1001
ACAD_MATERIAL_MAPPER
1070
     1
1070
     1
1070
     1
1011
-0.0000000000000706
1021
0.0
1031
0.0
1011
2.53999999999993
1021
0.0
1031
0.0
1011
-0.0000000000000706
1021
2.54
1031
0.0
1011
-0.0000000000000706
1021
0.0
1031
1.0
  0
VERTEX
  5
1B7
330
1B6
100
AcDbEntity
  8
0
 62
     0
100
AcDbVertex
100
AcDbPolyFaceMeshVertex
 10
137.9999999999999
 20
0.0000000000001251
 30
108.0
 70
   192
  0
VERTEX
  5
1B8
330
1B6
100
AcDbEntity
  8
0
 62
     0
100
AcDbVertex
100
AcDbPolyFaceMeshVertex
 10
0.0000000000000006
 20
9.500000000001958
 30
107.9999999999999
 70
   192
  0
VERTEX
  5
1B9
330
1B6
100
AcDbEntity
  8
0
 62
     0
100
AcDbVertex
100
AcDbPolyFaceMeshVertex
 10
0.0000000000000006
 20
0.0000000000019508
 30
107.9999999999999
 70
   192
  0
VERTEX
  5
1BA
330
1B6
100
AcDbEntity
  8
0
 62
     0
100
AcDbVertex
100
AcDbPolyFaceMeshVertex
 10
137.9999999999999
 20
9.500000000000131
 30
108.0
 70
   192
  0
VERTEX
  5
1BB
330
1B6
100
AcDbEntity
  8
0
 62
     0
100
AcDbFaceRecord
 10
0.0
 20
0.0
 30
0.0
 70
   128
 71
    -1
 72
     2
 73
     3
  0
VERTEX
  5
1BC
330
1B6
100
AcDbEntity
  8
0
 62
     0
100
AcDbFaceRecord
 10
0.0
 20
0.0
 30
0.0
 70
   128
 71
    -2
 72
     1
 73
     4
  0
SEQEND
  5
1BD
330
1B6
100
AcDbEntity
  8
0
 62
     0
  0
LINE
  5
1BE
330
1F
100
AcDbEntity
  8
0
 62
     0
100
AcDbLine
 10
0.0000000000000006
 20
0.0000000000019508
 30
107.9999999999999
 11
0.0000000000000006
 21
9.500000000001958
 31
107.9999999999999
  0
LINE
  5
1BF
330
1F
100
AcDbEntity
  8
0
 62
     0
100
AcDbLine
 10
137.9999999999999
 20
0.0000000000001251
 30
108.0
 11
0.0000000000000006
 21
0.0000000000019508
 31
107.9999999999999
  0
LINE
  5
1C0
330
1F
100
AcDbEntity
  8
0
 62
     0
100
AcDbLine
 10
137.9999999999999
 20
9.500000000000131
 30
108.0
 11
137.9999999999999
 21
0.0000000000001251
 31
108.0
  0
LINE
  5
1C1
330
1F
100
AcDbEntity
  8
0
 62
     0
100
AcDbLine
 10
0.0000000000000006
 20
9.500000000001958
 30
107.9999999999999
 11
137.9999999999999
 21
9.500000000000131
 31
108.0
  0
POLYLINE
  5
1C2
330
1F
100
AcDbEntity
  8
0
 62
     0
100
AcDbPolyFaceMesh
 66
     1
 10
0.0
 20
0.0
 30
0.0
 70
    64
 71
     8
 72
     8
1001
ACAD_MATERIAL_MAPPER
1070
     1
1070
     1
1070
     1
1011
0.0
1021
0.0
1031
0.0
1011
2.54
1021
0.0
1031
0.0
1011
-0.0000000000000213
1021
0.0
1031
2.54
1011
0.0
1021
1.0
1031
0.0
  0
VERTEX
  5
1C3
330
1C2
100
AcDbEntity
  8
0
 62
     0
100
AcDbVertex
100
AcDbPolyFaceMeshVertex
 10
137.9999999999999
 20
0.0000000000001251
 30
0.0
 70
   192
  0
VERTEX
  5
1C4
330
1C2
100
AcDbEntity
  8
0
 62
     0
100
AcDbVertex
100
AcDbPolyFaceMeshVertex
 10
136.0
 20
0.0000000000001233
 30
2.0
 70
   192
  0
VERTEX
  5
1C5
330
1C2
100
AcDbEntity
  8
0
 62
     0
100
AcDbVertex
100
AcDbPolyFaceMeshVertex
 10
0.0000000000000006
 20
0.0000000000019508
 30
0.0
 70
   192
  0
VERTEX
  5
1C6
330
1C2
100
AcDbEntity
  8
0
 62
     0
100
AcDbVertex
100
AcDbPolyFaceMeshVertex
 10
137.9999999999999
 20
0.0000000000001251
 30
108.0
 70
   192
  0
VERTEX
  5
1C7
330
1C2
100
AcDbEntity
  8
0
 62
     0
100
AcDbVertex
100
AcDbPolyFaceMeshVertex
 10
135.9999999999999
 20
0.0000000000001233
 30
106.0
 70
   192
  0
VERTEX
  5
1C8
330
1C2
100
AcDbEntity
  8
0
 62
     0
100
AcDbVertex
100
AcDbPolyFaceMeshVertex
 10
2.000000000000087
 20
0.0000000000000035
 30
106.0
 70
   192
  0
VERTEX
  5
1C9
330
1C2
100
AcDbEntity
  8
0
 62
     0
100
AcDbVertex
100
AcDbPolyFaceMeshVertex
 10
0.0000000000000006
 20
0.0000000000019508
 30
107.9999999999999
 70
   192
  0
VERTEX
  5
1CA
330
1C2
100
AcDbEntity
  8
0
 62
     0
100
AcDbVertex
100
AcDbPolyFaceMeshVertex
 10
2.000000000000087
 20
0.0000000000023136
 30
2.0
 70
   192
  0
VERTEX
  5
1CB
330
1C2
100
AcDbEntity
  8
0
 62
     0
100
AcDbFaceRecord
 10
0.0
 20
0.0
 30
0.0
 70
   128
 71
    -1
 72
    -2
 73
     3
  0
VERTEX
  5
1CC
330
1C2
100
AcDbEntity
  8
0
 62
     0
100
AcDbFaceRecord
 10
0.0
 20
0.0
 30
0.0
 70
   128
 71
    -2
 72
     1
 73
    -4
  0
VERTEX
  5
1CD
330
1C2
100
AcDbEntity
  8
0
 62
     0
100
AcDbFaceRecord
 10
0.0
 20
0.0
 30
0.0
 70
   128
 71
    -2
 72
    -4
 73
     5
  0
VERTEX
  5
1CE
330
1C2
100
AcDbEntity
  8
0
 62
     0
100
AcDbFaceRecord
 10
0.0
 20
0.0
 30
0.0
 70
   128
 71
    -5
 72
    -4
 73
     6
  0
VERTEX
  5
1CF
330
1C2
100
AcDbEntity
  8
0
 62
     0
100
AcDbFaceRecord
 10
0.0
 20
0.0
 30
0.0
 70
   128
 71
    -6
 72
     4
 73
    -7
  0
VERTEX
  5
1D0
330
1C2
100
AcDbEntity
  8
0
 62
     0
100
AcDbFaceRecord
 10
0.0
 20
0.0
 30
0.0
 70
   128
 71
    -3
 72
    -8
 73
     7
  0
VERTEX
  5
1D1
330
1C2
100
AcDbEntity
  8
0
 62
     0
100
AcDbFaceRecord
 10
0.0
 20
0.0
 30
0.0
 70
   128
 71
    -8
 72
    -3
 73
     2
  0
VERTEX
  5
1D2
330
1C2
100
AcDbEntity
  8
0
 62
     0
100
AcDbFaceRecord
 10
0.0
 20
0.0
 30
0.0
 70
   128
 71
    -7
 72
     8
 73
    -6
  0
SEQEND
  5
1D3
330
1C2
100
AcDbEntity
  8
0
 62
     0
  0
LINE
  5
1D4
330
1F
100
AcDbEntity
  8
0
 62
     0
100
AcDbLine
 10
137.9999999999999
 20
0.0000000000001251
 30
108.0
 11
0.0000000000000006
 21
0.0000000000019508
 31
107.9999999999999
  0
LINE
  5
1D5
330
1F
100
AcDbEntity
  8
0
 62
     0
100
AcDbLine
 10
0.0000000000000006
 20
0.0000000000019508
 30
0.0
 11
0.0000000000000006
 21
0.0000000000019508
 31
107.9999999999999
  0
LINE
  5
1D6
330
1F
100
AcDbEntity
  8
0
 62
     0
100
AcDbLine
 10
137.9999999999999
 20
0.0000000000001251
 30
0.0
 11
0.0000000000000006
 21
0.0000000000019508
 31
0.0
  0
LINE
  5
1D7
330
1F
100
AcDbEntity
  8
0
 62
     0
100
AcDbLine
 10
137.9999999999999
 20
0.0000000000001251
 30
0.0
 11
137.9999999999999
 21
0.0000000000001251
 31
108.0
  0
LINE
  5
1D8
330
1F
100
AcDbEntity
  8
0
 62
     0
100
AcDbLine
 10
2.000000000000087
 20
0.0000000000023136
 30
2.0
 11
2.000000000000087
 21
0.0000000000000035
 31
106.0
  0
LINE
  5
1D9
330
1F
100
AcDbEntity
  8
0
 62
     0
100
AcDbLine
 10
2.000000000000087
 20
0.0000000000000035
 30
106.0
 11
135.9999999999999
 21
0.0000000000001233
 31
106.0
  0
LINE
  5
1DA
330
1F
100
AcDbEntity
  8
0
 62
     0
100
AcDbLine
 10
136.0
 20
0.0000000000001233
 30
2.0
 11
135.9999999999999
 21
0.0000000000001233
 31
106.0
  0
LINE
  5
1DB
330
1F
100
AcDbEntity
  8
0
 62
     0
100
AcDbLine
 10
2.000000000000087
 20
0.0000000000023136
 30
2.0
 11
136.0
 21
0.0000000000001233
 31
2.0
  0
POLYLINE
  5
1DC
330
1F
100
AcDbEntity
  8
0
 62
     0
100
AcDbPolyFaceMesh
 66
     1
 10
0.0
 20
0.0
 30
0.0
 70
    64
 71
     4
 72
     2
1001
ACAD_MATERIAL_MAPPER
1070
     1
1070
     1
1070
     1
1011
0.0
1021
0.0
1031
0.0
1011
-2.54
1021
0.0
1031
0.0
1011
0.0
1021
2.54
1031
0.0
1011
0.0
1021
0.0
1031
1.0
  0
VERTEX
  5
1DD
330
1DC
100
AcDbEntity
  8
0
 62
     0
100
AcDbVertex
100
AcDbPolyFaceMeshVertex
 10
137.9999999999999
 20
9.500000000000131
 30
0.0
 70
   192
  0
VERTEX
  5
1DE
330
1DC
100
AcDbEntity
  8
0
 62
     0
100
AcDbVertex
100
AcDbPolyFaceMeshVertex
 10
0.0000000000000006
 20
0.0000000000019508
 30
0.0
 70
   192
  0
VERTEX
  5
1DF
330
1DC
100
AcDbEntity
  8
0
 62
     0
100
AcDbVertex
100
AcDbPolyFaceMeshVertex
 10
0.0000000000000006
 20
9.500000000001958
 30
0.0
 70
   192
  0
VERTEX
  5
1E0
330
1DC
100
AcDbEntity
  8
0
 62
     0
100
AcDbVertex
100
AcDbPolyFaceMeshVertex
 10
137.9999999999999
 20
0.0000000000001251
 30
0.0
 70
   192
  0
VERTEX
  5
1E1
330
1DC
100
AcDbEntity
  8
0
 62
     0
100
AcDbFaceRecord
 10
0.0
 20
0.0
 30
0.0
 70
   128
 71
    -1
 72
     2
 73
     3
  0
VERTEX
  5
1E2
330
1DC
100
AcDbEntity
  8
0
 62
     0
100
AcDbFaceRecord
 10
0.0
 20
0.0
 30
0.0
 70
   128
 71
    -2
 72
     1
 73
     4
  0
SEQEND
  5
1E3
330
1DC
100
AcDbEntity
  8
0
 62
     0
  0
LINE
  5
1E4
330
1F
100
AcDbEntity
  8
0
 62
     0
100
AcDbLine
 10
0.0000000000000006
 20
0.0000000000019508
 30
0.0
 11
0.0000000000000006
 21
9.500000000001958
 31
0.0
  0
LINE
  5
1E5
330
1F
100
AcDbEntity
  8
0
 62
     0
100
AcDbLine
 10
0.0000000000000006
 20
9.500000000001958
 30
0.0
 11
137.9999999999999
 21
9.500000000000131
 31
0.0
  0
LINE
  5
1E6
330
1F
100
AcDbEntity
  8
0
 62
     0
100
AcDbLine
 10
137.9999999999999
 20
9.500000000000131
 30
0.0
 11
137.9999999999999
 21
0.0000000000001251
 31
0.0
  0
LINE
  5
1E7
330
1F
100
AcDbEntity
  8
0
 62
     0
100
AcDbLine
 10
137.9999999999999
 20
0.0000000000001251
 30
0.0
 11
0.0000000000000006
 21
0.0000000000019508
 31
0.0
  0
POLYLINE
  5
1E8
330
1F
100
AcDbEntity
  8
0
 62
     0
100
AcDbPolyFaceMesh
 66
     1
 10
0.0
 20
0.0
 30
0.0
 70
    64
 71
     4
 72
     2
1001
ACAD_MATERIAL_MAPPER
1070
     1
1070
     1
1070
     1
1011
0.0
1021
-0.0000000000002888
1031
0.0
1011
0.0
1021
2.539999999999712
1031
0.0
1011
0.0
1021
-0.0000000000002888
1031
2.54
1011
1.0
1021
-0.0000000000002888
1031
0.0
  0
VERTEX
  5
1E9
330
1E8
100
AcDbEntity
  8
0
 62
     0
100
AcDbVertex
100
AcDbPolyFaceMeshVertex
 10
2.000000000000087
 20
0.0000000000023136
 30
2.0
 70
   192
  0
VERTEX
  5
1EA
330
1E8
100
AcDbEntity
  8
0
 62
     0
100
AcDbVertex
100
AcDbPolyFaceMeshVertex
 10
2.000000000000159
 20
0.5000000000019664
 30
106.0
 70
   192
  0
VERTEX
  5
1EB
330
1E8
100
AcDbEntity
  8
0
 62
     0
100
AcDbVertex
100
AcDbPolyFaceMeshVertex
 10
2.000000000000087
 20
0.0000000000000035
 30
106.0
 70
   192
  0
VERTEX
  5
1EC
330
1E8
100
AcDbEntity
  8
0
 62
     0
100
AcDbVertex
100
AcDbPolyFaceMeshVertex
 10
2.000000000000159
 20
0.5000000000019664
 30
2.0
 70
   192
  0
VERTEX
  5
1ED
330
1E8
100
AcDbEntity
  8
0
 62
     0
100
AcDbFaceRecord
 10
0.0
 20
0.0
 30
0.0
 70
   128
 71
    -1
 72
     2
 73
     3
  0
VERTEX
  5
1EE
330
1E8
100
AcDbEntity
  8
0
 62
     0
100
AcDbFaceRecord
 10
0.0
 20
0.0
 30
0.0
 70
   128
 71
    -2
 72
     1
 73
     4
  0
SEQEND
  5
1EF
330
1E8
100
AcDbEntity
  8
0
 62
     0
  0
LINE
  5
1F0
330
1F
100
AcDbEntity
  8
0
 62
     0
100
AcDbLine
 10
2.000000000000159
 20
0.5000000000019664
 30
2.0
 11
2.000000000000087
 21
0.0000000000023136
 31
2.0
  0
LINE
  5
1F1
330
1F
100
AcDbEntity
  8
0
 62
     0
100
AcDbLine
 10
2.000000000000159
 20
0.5000000000019664
 30
2.0
 11
2.000000000000159
 21
0.5000000000019664
 31
106.0
  0
LINE
  5
1F2
330
1F
100
AcDbEntity
  8
0
 62
     0
100
AcDbLine
 10
2.000000000000159
 20
0.5000000000019664
 30
106.0
 11
2.000000000000087
 21
0.0000000000000035
 31
106.0
  0
LINE
  5
1F3
330
1F
100
AcDbEntity
  8
0
 62
     0
100
AcDbLine
 10
2.000000000000087
 20
0.0000000000023136
 30
2.0
 11
2.000000000000087
 21
0.0000000000000035
 31
106.0
  0
POLYLINE
  5
1F4
330
1F
100
AcDbEntity
  8
0
 62
     0
100
AcDbPolyFaceMesh
 66
     1
 10
0.0
 20
0.0
 30
0.0
 70
    64
 71
     8
 72
     8
1001
ACAD_MATERIAL_MAPPER
1070
     1
1070
     1
1070
     1
1011
0.0000000000000525
1021
0.0
1031
0.0000000000000041
1011
-2.539999999999947
1021
0.0
1031
0.0000000000000041
1011
0.000000000000046
1021
0.0
1031
2.540000000000005
1011
0.0000000000000525
1021
1.0
1031
0.0000000000000041
  0
VERTEX
  5
1F5
330
1F4
100
AcDbEntity
  8
0
 62
     0
100
AcDbVertex
100
AcDbPolyFaceMeshVertex
 10
70.35000000000004
 20
6.700000000001978
 30
5.599999999999903
 70
   192
  0
VERTEX
  5
1F6
330
1F4
100
AcDbEntity
  8
0
 62
     0
100
AcDbVertex
100
AcDbPolyFaceMeshVertex
 10
71.25000000000001
 20
6.700000000001979
 30
6.50000000000006
 70
   192
  0
VERTEX
  5
1F7
330
1F4
100
AcDbEntity
  8
0
 62
     0
100
AcDbVertex
100
AcDbPolyFaceMeshVertex
 10
132.3999999999999
 20
6.700000000002034
 30
5.599999999999917
 70
   192
  0
VERTEX
  5
1F8
330
1F4
100
AcDbEntity
  8
0
 62
     0
100
AcDbVertex
100
AcDbPolyFaceMeshVertex
 10
70.35000000000004
 20
6.700000000001978
 30
102.4000000000001
 70
   192
  0
VERTEX
  5
1F9
330
1F4
100
AcDbEntity
  8
0
 62
     0
100
AcDbVertex
100
AcDbPolyFaceMeshVertex
 10
71.25000000000001
 20
6.700000000001979
 30
101.4999999999999
 70
   192
  0
VERTEX
  5
1FA
330
1F4
100
AcDbEntity
  8
0
 62
     0
100
AcDbVertex
100
AcDbPolyFaceMeshVertex
 10
131.5
 20
6.700000000002033
 30
101.5
 70
   192
  0
VERTEX
  5
1FB
330
1F4
100
AcDbEntity
  8
0
 62
     0
100
AcDbVertex
100
AcDbPolyFaceMeshVertex
 10
131.5
 20
6.700000000002033
 30
6.500000000000075
 70
   192
  0
VERTEX
  5
1FC
330
1F4
100
AcDbEntity
  8
0
 62
     0
100
AcDbVertex
100
AcDbPolyFaceMeshVertex
 10
132.4000000000001
 20
6.700000000002034
 30
102.4000000000001
 70
   192
  0
VERTEX
  5
1FD
330
1F4
100
AcDbEntity
  8
0
 62
     0
100
AcDbFaceRecord
 10
0.0
 20
0.0
 30
0.0
 70
   128
 71
    -1
 72
    -2
 73
     3
  0
VERTEX
  5
1FE
330
1F4
100
AcDbEntity
  8
0
 62
     0
100
AcDbFaceRecord
 10
0.0
 20
0.0
 30
0.0
 70
   128
 71
    -2
 72
     1
 73
    -4
  0
VERTEX
  5
1FF
330
1F4
100
AcDbEntity
  8
0
 62
     0
100
AcDbFaceRecord
 10
0.0
 20
0.0
 30
0.0
 70
   128
 71
    -2
 72
    -4
 73
     5
  0
VERTEX
  5
200
330
1F4
100
AcDbEntity
  8
0
 62
     0
100
AcDbFaceRecord
 10
0.0
 20
0.0
 30
0.0
 70
   128
 71
    -5
 72
    -4
 73
     6
  0
VERTEX
  5
201
330
1F4
100
AcDbEntity
  8
0
 62
     0
100
AcDbFaceRecord
 10
0.0
 20
0.0
 30
0.0
 70
   128
 71
    -3
 72
    -7
 73
     8
  0
VERTEX
  5
202
330
1F4
100
AcDbEntity
  8
0
 62
     0
100
AcDbFaceRecord
 10
0.0
 20
0.0
 30
0.0
 70
   128
 71
    -7
 72
    -3
 73
     2
  0
VERTEX
  5
203
330
1F4
100
AcDbEntity
  8
0
 62
     0
100
AcDbFaceRecord
 10
0.0
 20
0.0
 30
0.0
 70
   128
 71
    -8
 72
     7
 73
    -6
  0
VERTEX
  5
204
330
1F4
100
AcDbEntity
  8
0
 62
     0
100
AcDbFaceRecord
 10
0.0
 20
0.0
 30
0.0
 70
   128
 71
    -8
 72
    -6
 73
     4
  0
SEQEND
  5
205
330
1F4
100
AcDbEntity
  8
0
 62
     0
  0
LINE
  5
206
330
1F
100
AcDbEntity
  8
0
 62
     0
100
AcDbLine
 10
132.4000000000001
 20
6.700000000002034
 30
102.4000000000001
 11
70.35000000000004
 21
6.700000000001978
 31
102.4000000000001
  0
LINE
  5
207
330
1F
100
AcDbEntity
  8
0
 62
     0
100
AcDbLine
 10
132.3999999999999
 20
6.700000000002034
 30
5.599999999999917
 11
132.4000000000001
 21
6.700000000002034
 31
102.4000000000001
  0
LINE
  5
208
330
1F
100
AcDbEntity
  8
0
 62
     0
100
AcDbLine
 10
70.35000000000004
 20
6.700000000001978
 30
5.599999999999903
 11
132.3999999999999
 21
6.700000000002034
 31
5.599999999999917
  0
LINE
  5
209
330
1F
100
AcDbEntity
  8
0
 62
     0
100
AcDbLine
 10
70.35000000000004
 20
6.700000000001978
 30
5.599999999999903
 11
70.35000000000004
 21
6.700000000001978
 31
102.4000000000001
  0
LINE
  5
20A
330
1F
100
AcDbEntity
  8
0
 62
     0
100
AcDbLine
 10
131.5
 20
6.700000000002033
 30
101.5
 11
71.25000000000001
 21
6.700000000001979
 31
101.4999999999999
  0
LINE
  5
20B
330
1F
100
AcDbEntity
  8
0
 62
     0
100
AcDbLine
 10
71.25000000000001
 20
6.700000000001979
 30
6.50000000000006
 11
71.25000000000001
 21
6.700000000001979
 31
101.4999999999999
  0
LINE
  5
20C
330
1F
100
AcDbEntity
  8
0
 62
     0
100
AcDbLine
 10
71.25000000000001
 20
6.700000000001979
 30
6.50000000000006
 11
131.5
 21
6.700000000002033
 31
6.500000000000075
  0
LINE
  5
20D
330
1F
100
AcDbEntity
  8
0
 62
     0
100
AcDbLine
 10
131.5
 20
6.700000000002033
 30
6.500000000000075
 11
131.5
 21
6.700000000002033
 31
101.5
  0
POLYLINE
  5
20E
330
1F
100
AcDbEntity
  8
0
 62
     0
100
AcDbPolyFaceMesh
 66
     1
 10
0.0
 20
0.0
 30
0.0
 70
    64
 71
     4
 72
     2
1001
ACAD_MATERIAL_MAPPER
1070
     1
1070
     1
1070
     1
1011
0.0
1021
0.0000000000073644
1031
0.0000000000000502
1011
0.0
1021
-2.539999999992634
1031
0.0000000000000502
1011
0.0
1021
0.0000000000073644
1031
2.54000000000005
1011
1.0
1021
0.0000000000073644
1031
0.0000000000000502
  0
VERTEX
  5
20F
330
20E
100
AcDbEntity
  8
0
 62
     0
100
AcDbVertex
100
AcDbPolyFaceMeshVertex
 10
135.9999999999998
 20
9.499999999999767
 30
106.0
 70
   192
  0
VERTEX
  5
210
330
20E
100
AcDbEntity
  8
0
 62
     0
100
AcDbVertex
100
AcDbPolyFaceMeshVertex
 10
136.0000000000001
 20
5.000000000002063
 30
2.0
 70
   192
  0
VERTEX
  5
211
330
20E
100
AcDbEntity
  8
0
 62
     0
100
AcDbVertex
100
AcDbPolyFaceMeshVertex
 10
136.0000000000001
 20
5.000000000002063
 30
106.0
 70
   192
  0
VERTEX
  5
212
330
20E
100
AcDbEntity
  8
0
 62
     0
100
AcDbVertex
100
AcDbPolyFaceMeshVertex
 10
135.9999999999998
 20
9.500000000000128
 30
2.0
 70
   192
  0
VERTEX
  5
213
330
20E
100
AcDbEntity
  8
0
 62
     0
100
AcDbFaceRecord
 10
0.0
 20
0.0
 30
0.0
 70
   128
 71
    -1
 72
     2
 73
     3
  0
VERTEX
  5
214
330
20E
100
AcDbEntity
  8
0
 62
     0
100
AcDbFaceRecord
 10
0.0
 20
0.0
 30
0.0
 70
   128
 71
    -2
 72
     1
 73
     4
  0
SEQEND
  5
215
330
20E
100
AcDbEntity
  8
0
 62
     0
  0
LINE
  5
216
330
1F
100
AcDbEntity
  8
0
 62
     0
100
AcDbLine
 10
136.0000000000001
 20
5.000000000002063
 30
2.0
 11
135.9999999999998
 21
9.500000000000128
 31
2.0
  0
LINE
  5
217
330
1F
100
AcDbEntity
  8
0
 62
     0
100
AcDbLine
 10
136.0000000000001
 20
5.000000000002063
 30
2.0
 11
136.0000000000001
 21
5.000000000002063
 31
106.0
  0
LINE
  5
218
330
1F
100
AcDbEntity
  8
0
 62
     0
100
AcDbLine
 10
136.0000000000001
 20
5.000000000002063
 30
106.0
 11
135.9999999999998
 21
9.499999999999767
 31
106.0
  0
LINE
  5
219
330
1F
100
AcDbEntity
  8
0
 62
     0
100
AcDbLine
 10
135.9999999999998
 20
9.500000000000128
 30
2.0
 11
135.9999999999998
 21
9.499999999999767
 31
106.0
  0
POLYLINE
  5
21A
330
1F
100
AcDbEntity
  8
0
 62
     0
100
AcDbPolyFaceMesh
 66
     1
 10
0.0
 20
0.0
 30
0.0
 70
    64
 71
     4
 72
     2
1001
ACAD_MATERIAL_MAPPER
1070
     1
1070
     1
1070
     1
1011
0.0000000000000675
1021
0.0
1031
0.0
1011
2.540000000000067
1021
0.0
1031
0.0
1011
0.0000000000000675
1021
2.540000000000001
1031
0.0
1011
0.0000000000000675
1021
0.0
1031
1.0
  0
VERTEX
  5
21B
330
21A
100
AcDbEntity
  8
0
 62
     0
100
AcDbVertex
100
AcDbPolyFaceMeshVertex
 10
132.3999999999999
 20
6.700000000002034
 30
5.599999999999917
 70
   192
  0
VERTEX
  5
21C
330
21A
100
AcDbEntity
  8
0
 62
     0
100
AcDbVertex
100
AcDbPolyFaceMeshVertex
 10
70.35000000000004
 20
9.500000000002064
 30
5.599999999999903
 70
   192
  0
VERTEX
  5
21D
330
21A
100
AcDbEntity
  8
0
 62
     0
100
AcDbVertex
100
AcDbPolyFaceMeshVertex
 10
70.35000000000004
 20
6.700000000001978
 30
5.599999999999903
 70
   192
  0
VERTEX
  5
21E
330
21A
100
AcDbEntity
  8
0
 62
     0
100
AcDbVertex
100
AcDbPolyFaceMeshVertex
 10
132.4000000000001
 20
9.50000000000212
 30
5.599999999999918
 70
   192
  0
VERTEX
  5
21F
330
21A
100
AcDbEntity
  8
0
 62
     0
100
AcDbFaceRecord
 10
0.0
 20
0.0
 30
0.0
 70
   128
 71
    -1
 72
     2
 73
     3
  0
VERTEX
  5
220
330
21A
100
AcDbEntity
  8
0
 62
     0
100
AcDbFaceRecord
 10
0.0
 20
0.0
 30
0.0
 70
   128
 71
    -2
 72
     1
 73
     4
  0
SEQEND
  5
221
330
21A
100
AcDbEntity
  8
0
 62
     0
  0
LINE
  5
222
330
1F
100
AcDbEntity
  8
0
 62
     0
100
AcDbLine
 10
70.35000000000004
 20
6.700000000001978
 30
5.599999999999903
 11
70.35000000000004
 21
9.500000000002064
 31
5.599999999999903
  0
LINE
  5
223
330
1F
100
AcDbEntity
  8
0
 62
     0
100
AcDbLine
 10
70.35000000000004
 20
6.700000000001978
 30
5.599999999999903
 11
132.3999999999999
 21
6.700000000002034
 31
5.599999999999917
  0
LINE
  5
224
330
1F
100
AcDbEntity
  8
0
 62
     0
100
AcDbLine
 10
132.3999999999999
 20
6.700000000002034
 30
5.599999999999917
 11
132.4000000000001
 21
9.50000000000212
 31
5.599999999999918
  0
LINE
  5
225
330
1F
100
AcDbEntity
  8
0
 62
     0
100
AcDbLine
 10
70.35000000000004
 20
9.500000000002064
 30
5.599999999999903
 11
132.4000000000001
 21
9.50000000000212
 31
5.599999999999918
  0
POLYLINE
  5
226
330
1F
100
AcDbEntity
  8
0
 62
     0
100
AcDbPolyFaceMesh
 66
     1
 10
0.0
 20
0.0
 30
0.0
 70
    64
 71
     4
 72
     2
1001
ACAD_MATERIAL_MAPPER
1070
     1
1070
     1
1070
     1
1011
-0.0000000000001146
1021
-0.0000000000000143
1031
0.0
1011
2.539999999999885
1021
-0.0000000000000143
1031
0.0
1011
-0.0000000000001146
1021
2.539999999999984
1031
0.0
1011
-0.0000000000001146
1021
-0.0000000000000143
1031
1.0
  0
VERTEX
  5
227
330
226
100
AcDbEntity
  8
0
 62
     0
100
AcDbVertex
100
AcDbPolyFaceMeshVertex
 10
131.5
 20
5.00000000000206
 30
6.500000000000072
 70
   192
  0
VERTEX
  5
228
330
226
100
AcDbEntity
  8
0
 62
     0
100
AcDbVertex
100
AcDbPolyFaceMeshVertex
 10
71.25000000000001
 20
6.700000000001979
 30
6.50000000000006
 70
   192
  0
VERTEX
  5
229
330
226
100
AcDbEntity
  8
0
 62
     0
100
AcDbVertex
100
AcDbPolyFaceMeshVertex
 10
71.25000000000001
 20
5.000000000002005
 30
6.50000000000006
 70
   192
  0
VERTEX
  5
22A
330
226
100
AcDbEntity
  8
0
 62
     0
100
AcDbVertex
100
AcDbPolyFaceMeshVertex
 10
131.5
 20
6.700000000002033
 30
6.500000000000075
 70
   192
  0
VERTEX
  5
22B
330
226
100
AcDbEntity
  8
0
 62
     0
100
AcDbFaceRecord
 10
0.0
 20
0.0
 30
0.0
 70
   128
 71
    -1
 72
     2
 73
     3
  0
VERTEX
  5
22C
330
226
100
AcDbEntity
  8
0
 62
     0
100
AcDbFaceRecord
 10
0.0
 20
0.0
 30
0.0
 70
   128
 71
    -2
 72
     1
 73
     4
  0
SEQEND
  5
22D
330
226
100
AcDbEntity
  8
0
 62
     0
  0
LINE
  5
22E
330
1F
100
AcDbEntity
  8
0
 62
     0
100
AcDbLine
 10
71.25000000000001
 20
6.700000000001979
 30
6.50000000000006
 11
131.5
 21
6.700000000002033
 31
6.500000000000075
  0
LINE
  5
22F
330
1F
100
AcDbEntity
  8
0
 62
     0
100
AcDbLine
 10
71.25000000000001
 20
5.000000000002005
 30
6.50000000000006
 11
71.25000000000001
 21
6.700000000001979
 31
6.50000000000006
  0
LINE
  5
230
330
1F
100
AcDbEntity
  8
0
 62
     0
100
AcDbLine
 10
71.25000000000001
 20
5.000000000002005
 30
6.50000000000006
 11
131.5
 21
5.00000000000206
 31
6.500000000000072
  0
LINE
  5
231
330
1F
100
AcDbEntity
  8
0
 62
     0
100
AcDbLine
 10
131.5
 20
5.00000000000206
 30
6.500000000000072
 11
131.5
 21
6.700000000002033
 31
6.500000000000075
  0
POLYLINE
  5
232
330
1F
100
AcDbEntity
  8
0
 62
     0
100
AcDbPolyFaceMesh
 66
     1
 10
0.0
 20
0.0
 30
0.0
 70
    64
 71
     8
 72
     8
1001
ACAD_MATERIAL_MAPPER
1070
     1
1070
     1
1070
     1
1011
0.000000000000306
1021
0.0
1031
0.0000000000000162
1011
-2.539999999999694
1021
0.0
1031
0.0000000000000162
1011
0.0000000000003067
1021
0.0
1031
2.540000000000016
1011
0.000000000000306
1021
1.0
1031
0.0000000000000162
  0
VERTEX
  5
233
330
232
100
AcDbEntity
  8
0
 62
     0
100
AcDbVertex
100
AcDbPolyFaceMeshVertex
 10
66.75000000000013
 20
9.50000000000206
 30
2.0
 70
   192
  0
VERTEX
  5
234
330
232
100
AcDbEntity
  8
0
 62
     0
100
AcDbVertex
100
AcDbPolyFaceMeshVertex
 10
70.35000000000004
 20
9.500000000002064
 30
5.599999999999903
 70
   192
  0
VERTEX
  5
235
330
232
100
AcDbEntity
  8
0
 62
     0
100
AcDbVertex
100
AcDbPolyFaceMeshVertex
 10
135.9999999999998
 20
9.500000000000128
 30
2.0
 70
   192
  0
VERTEX
  5
236
330
232
100
AcDbEntity
  8
0
 62
     0
100
AcDbVertex
100
AcDbPolyFaceMeshVertex
 10
66.75000000000013
 20
9.50000000000206
 30
106.0
 70
   192
  0
VERTEX
  5
237
330
232
100
AcDbEntity
  8
0
 62
     0
100
AcDbVertex
100
AcDbPolyFaceMeshVertex
 10
70.35000000000004
 20
9.500000000002064
 30
102.4000000000001
 70
   192
  0
VERTEX
  5
238
330
232
100
AcDbEntity
  8
0
 62
     0
100
AcDbVertex
100
AcDbPolyFaceMeshVertex
 10
132.3999999999999
 20
9.50000000000212
 30
102.4000000000001
 70
   192
  0
VERTEX
  5
239
330
232
100
AcDbEntity
  8
0
 62
     0
100
AcDbVertex
100
AcDbPolyFaceMeshVertex
 10
135.9999999999998
 20
9.499999999999767
 30
106.0
 70
   192
  0
VERTEX
  5
23A
330
232
100
AcDbEntity
  8
0
 62
     0
100
AcDbVertex
100
AcDbPolyFaceMeshVertex
 10
132.4000000000001
 20
9.50000000000212
 30
5.599999999999918
 70
   192
  0
VERTEX
  5
23B
330
232
100
AcDbEntity
  8
0
 62
     0
100
AcDbFaceRecord
 10
0.0
 20
0.0
 30
0.0
 70
   128
 71
    -1
 72
    -2
 73
     3
  0
VERTEX
  5
23C
330
232
100
AcDbEntity
  8
0
 62
     0
100
AcDbFaceRecord
 10
0.0
 20
0.0
 30
0.0
 70
   128
 71
    -2
 72
     1
 73
    -4
  0
VERTEX
  5
23D
330
232
100
AcDbEntity
  8
0
 62
     0
100
AcDbFaceRecord
 10
0.0
 20
0.0
 30
0.0
 70
   128
 71
    -2
 72
    -4
 73
     5
  0
VERTEX
  5
23E
330
232
100
AcDbEntity
  8
0
 62
     0
100
AcDbFaceRecord
 10
0.0
 20
0.0
 30
0.0
 70
   128
 71
    -5
 72
    -4
 73
     6
  0
VERTEX
  5
23F
330
232
100
AcDbEntity
  8
0
 62
     0
100
AcDbFaceRecord
 10
0.0
 20
0.0
 30
0.0
 70
   128
 71
    -6
 72
     4
 73
    -7
  0
VERTEX
  5
240
330
232
100
AcDbEntity
  8
0
 62
     0
100
AcDbFaceRecord
 10
0.0
 20
0.0
 30
0.0
 70
   128
 71
    -3
 72
    -8
 73
     7
  0
VERTEX
  5
241
330
232
100
AcDbEntity
  8
0
 62
     0
100
AcDbFaceRecord
 10
0.0
 20
0.0
 30
0.0
 70
   128
 71
    -8
 72
    -3
 73
     2
  0
VERTEX
  5
242
330
232
100
AcDbEntity
  8
0
 62
     0
100
AcDbFaceRecord
 10
0.0
 20
0.0
 30
0.0
 70
   128
 71
    -7
 72
     8
 73
    -6
  0
SEQEND
  5
243
330
232
100
AcDbEntity
  8
0
 62
     0
  0
LINE
  5
244
330
1F
100
AcDbEntity
  8
0
 62
     0
100
AcDbLine
 10
66.75000000000013
 20
9.50000000000206
 30
2.0
 11
66.75000000000013
 21
9.50000000000206
 31
106.0
  0
LINE
  5
245
330
1F
100
AcDbEntity
  8
0
 62
     0
100
AcDbLine
 10
135.9999999999998
 20
9.499999999999767
 30
106.0
 11
66.75000000000013
 21
9.50000000000206
 31
106.0
  0
LINE
  5
246
330
1F
100
AcDbEntity
  8
0
 62
     0
100
AcDbLine
 10
135.9999999999998
 20
9.500000000000128
 30
2.0
 11
135.9999999999998
 21
9.499999999999767
 31
106.0
  0
LINE
  5
247
330
1F
100
AcDbEntity
  8
0
 62
     0
100
AcDbLine
 10
135.9999999999998
 20
9.500000000000128
 30
2.0
 11
66.75000000000013
 21
9.50000000000206
 31
2.0
  0
LINE
  5
248
330
1F
100
AcDbEntity
  8
0
 62
     0
100
AcDbLine
 10
132.4000000000001
 20
9.50000000000212
 30
5.599999999999918
 11
132.3999999999999
 21
9.50000000000212
 31
102.4000000000001
  0
LINE
  5
249
330
1F
100
AcDbEntity
  8
0
 62
     0
100
AcDbLine
 10
132.3999999999999
 20
9.50000000000212
 30
102.4000000000001
 11
70.35000000000004
 21
9.500000000002064
 31
102.4000000000001
  0
LINE
  5
24A
330
1F
100
AcDbEntity
  8
0
 62
     0
100
AcDbLine
 10
70.35000000000004
 20
9.500000000002064
 30
5.599999999999903
 11
70.35000000000004
 21
9.500000000002064
 31
102.4000000000001
  0
LINE
  5
24B
330
1F
100
AcDbEntity
  8
0
 62
     0
100
AcDbLine
 10
70.35000000000004
 20
9.500000000002064
 30
5.599999999999903
 11
132.4000000000001
 21
9.50000000000212
 31
5.599999999999918
  0
POLYLINE
  5
24C
330
1F
100
AcDbEntity
  8
0
 62
     0
100
AcDbPolyFaceMesh
 66
     1
 10
0.0
 20
0.0
 30
0.0
 70
    64
 71
     5
 72
     3
1001
ACAD_MATERIAL_MAPPER
1070
     1
1070
     1
1070
     1
1011
-0.0000000000002898
1021
-0.0000000000000181
1031
0.0
1011
2.539999999999706
1021
-0.0000000000000187
1031
0.0
1011
-0.0000000000002898
1021
2.539999999999977
1031
0.0
1011
-0.0000000000002898
1021
-0.0000000000000181
1031
1.0
  0
VERTEX
  5
24D
330
24C
100
AcDbEntity
  8
0
 62
     0
100
AcDbVertex
100
AcDbPolyFaceMeshVertex
 10
71.25000000000023
 20
5.000000000002088
 30
2.0
 70
   192
  0
VERTEX
  5
24E
330
24C
100
AcDbEntity
  8
0
 62
     0
100
AcDbVertex
100
AcDbPolyFaceMeshVertex
 10
66.75000000000013
 20
9.50000000000206
 30
2.0
 70
   192
  0
VERTEX
  5
24F
330
24C
100
AcDbEntity
  8
0
 62
     0
100
AcDbVertex
100
AcDbPolyFaceMeshVertex
 10
66.75000000000013
 20
5.000000000002001
 30
2.0
 70
   192
  0
VERTEX
  5
250
330
24C
100
AcDbEntity
  8
0
 62
     0
100
AcDbVertex
100
AcDbPolyFaceMeshVertex
 10
135.9999999999998
 20
9.500000000000128
 30
2.0
 70
   192
  0
VERTEX
  5
251
330
24C
100
AcDbEntity
  8
0
 62
     0
100
AcDbVertex
100
AcDbPolyFaceMeshVertex
 10
136.0000000000001
 20
5.000000000002063
 30
2.0
 70
   192
  0
VERTEX
  5
252
330
24C
100
AcDbEntity
  8
0
 62
     0
100
AcDbFaceRecord
 10
0.0
 20
0.0
 30
0.0
 70
   128
 71
    -1
 72
     2
 73
     3
  0
VERTEX
  5
253
330
24C
100
AcDbEntity
  8
0
 62
     0
100
AcDbFaceRecord
 10
0.0
 20
0.0
 30
0.0
 70
   128
 71
    -2
 72
    -1
 73
     4
  0
VERTEX
  5
254
330
24C
100
AcDbEntity
  8
0
 62
     0
100
AcDbFaceRecord
 10
0.0
 20
0.0
 30
0.0
 70
   128
 71
    -4
 72
     1
 73
     5
  0
SEQEND
  5
255
330
24C
100
AcDbEntity
  8
0
 62
     0
  0
LINE
  5
256
330
1F
100
AcDbEntity
  8
0
 62
     0
100
AcDbLine
 10
66.75000000000013
 20
5.000000000002001
 30
2.0
 11
66.75000000000013
 21
9.50000000000206
 31
2.0
  0
LINE
  5
257
330
1F
100
AcDbEntity
  8
0
 62
     0
100
AcDbLine
 10
66.75000000000013
 20
5.000000000002001
 30
2.0
 11
71.25000000000023
 21
5.000000000002088
 31
2.0
  0
LINE
  5
258
330
1F
100
AcDbEntity
  8
0
 62
     0
100
AcDbLine
 10
136.0000000000001
 20
5.000000000002063
 30
2.0
 11
71.25000000000023
 21
5.000000000002088
 31
2.0
  0
LINE
  5
259
330
1F
100
AcDbEntity
  8
0
 62
     0
100
AcDbLine
 10
136.0000000000001
 20
5.000000000002063
 30
2.0
 11
135.9999999999998
 21
9.500000000000128
 31
2.0
  0
LINE
  5
25A
330
1F
100
AcDbEntity
  8
0
 62
     0
100
AcDbLine
 10
135.9999999999998
 20
9.500000000000128
 30
2.0
 11
66.75000000000013
 21
9.50000000000206
 31
2.0
  0
POLYLINE
  5
25B
330
1F
100
AcDbEntity
  8
0
 62
     0
100
AcDbPolyFaceMesh
 66
     1
 10
0.0
 20
0.0
 30
0.0
 70
    64
 71
     6
 72
     4
1001
ACAD_MATERIAL_MAPPER
1070
     1
1070
     1
1070
     1
1011
0.0
1021
0.0
1031
-0.0000000000003622
1011
0.0
1021
-2.539999999999999
1031
-0.0000000000003622
1011
0.0
1021
0.0
1031
2.539999999999651
1011
1.0
1021
0.0
1031
-0.0000000000003622
  0
VERTEX
  5
25C
330
25B
100
AcDbEntity
  8
0
 62
     0
100
AcDbVertex
100
AcDbPolyFaceMeshVertex
 10
66.75000000000013
 20
9.50000000000206
 30
106.0
 70
   192
  0
VERTEX
  5
25D
330
25B
100
AcDbEntity
  8
0
 62
     0
100
AcDbVertex
100
AcDbPolyFaceMeshVertex
 10
66.75000000000013
 20
5.000000000002043
 30
102.4000000000001
 70
   192
  0
VERTEX
  5
25E
330
25B
100
AcDbEntity
  8
0
 62
     0
100
AcDbVertex
100
AcDbPolyFaceMeshVertex
 10
66.75000000000013
 20
5.000000000002001
 30
106.0
 70
   192
  0
VERTEX
  5
25F
330
25B
100
AcDbEntity
  8
0
 62
     0
100
AcDbVertex
100
AcDbPolyFaceMeshVertex
 10
66.75000000000013
 20
5.000000000002043
 30
5.599999999999918
 70
   192
  0
VERTEX
  5
260
330
25B
100
AcDbEntity
  8
0
 62
     0
100
AcDbVertex
100
AcDbPolyFaceMeshVertex
 10
66.75000000000013
 20
9.50000000000206
 30
2.0
 70
   192
  0
VERTEX
  5
261
330
25B
100
AcDbEntity
  8
0
 62
     0
100
AcDbVertex
100
AcDbPolyFaceMeshVertex
 10
66.75000000000013
 20
5.000000000002001
 30
2.0
 70
   192
  0
VERTEX
  5
262
330
25B
100
AcDbEntity
  8
0
 62
     0
100
AcDbFaceRecord
 10
0.0
 20
0.0
 30
0.0
 70
   128
 71
    -1
 72
     2
 73
     3
  0
VERTEX
  5
263
330
25B
100
AcDbEntity
  8
0
 62
     0
100
AcDbFaceRecord
 10
0.0
 20
0.0
 30
0.0
 70
   128
 71
    -2
 72
    -1
 73
     4
  0
VERTEX
  5
264
330
25B
100
AcDbEntity
  8
0
 62
     0
100
AcDbFaceRecord
 10
0.0
 20
0.0
 30
0.0
 70
   128
 71
    -4
 72
     5
 73
     6
  0
VERTEX
  5
265
330
25B
100
AcDbEntity
  8
0
 62
     0
100
AcDbFaceRecord
 10
0.0
 20
0.0
 30
0.0
 70
   128
 71
    -5
 72
    -4
 73
     1
  0
SEQEND
  5
266
330
25B
100
AcDbEntity
  8
0
 62
     0
  0
LINE
  5
267
330
1F
100
AcDbEntity
  8
0
 62
     0
100
AcDbLine
 10
66.75000000000013
 20
5.000000000002001
 30
2.0
 11
66.75000000000013
 21
9.50000000000206
 31
2.0
  0
LINE
  5
268
330
1F
100
AcDbEntity
  8
0
 62
     0
100
AcDbLine
 10
66.75000000000013
 20
5.000000000002001
 30
2.0
 11
66.75000000000013
 21
5.000000000002043
 31
5.599999999999918
  0
LINE
  5
269
330
1F
100
AcDbEntity
  8
0
 62
     0
100
AcDbLine
 10
66.75000000000013
 20
5.000000000002043
 30
5.599999999999918
 11
66.75000000000013
 21
5.000000000002043
 31
102.4000000000001
  0
LINE
  5
26A
330
1F
100
AcDbEntity
  8
0
 62
     0
100
AcDbLine
 10
66.75000000000013
 20
5.000000000002043
 30
102.4000000000001
 11
66.75000000000013
 21
5.000000000002001
 31
106.0
  0
LINE
  5
26B
330
1F
100
AcDbEntity
  8
0
 62
     0
100
AcDbLine
 10
66.75000000000013
 20
5.000000000002001
 30
106.0
 11
66.75000000000013
 21
9.50000000000206
 31
106.0
  0
LINE
  5
26C
330
1F
100
AcDbEntity
  8
0
 62
     0
100
AcDbLine
 10
66.75000000000013
 20
9.50000000000206
 30
2.0
 11
66.75000000000013
 21
9.50000000000206
 31
106.0
  0
POLYLINE
  5
26D
330
1F
100
AcDbEntity
  8
0
 62
     0
100
AcDbPolyFaceMesh
 66
     1
 10
0.0
 20
0.0
 30
0.0
 70
    64
 71
     4
 72
     2
1001
ACAD_MATERIAL_MAPPER
1070
     1
1070
     1
1070
     1
1011
0.0
1021
-0.0000000000000023
1031
0.0
1011
0.0
1021
-2.540000000000003
1031
0.0
1011
0.0
1021
-0.0000000000000023
1031
2.54
1011
1.0
1021
-0.0000000000000023
1031
0.0
  0
VERTEX
  5
26E
330
26D
100
AcDbEntity
  8
0
 62
     0
100
AcDbVertex
100
AcDbPolyFaceMeshVertex
 10
131.5
 20
6.700000000002033
 30
101.5
 70
   192
  0
VERTEX
  5
26F
330
26D
100
AcDbEntity
  8
0
 62
     0
100
AcDbVertex
100
AcDbPolyFaceMeshVertex
 10
131.5
 20
5.00000000000206
 30
6.500000000000072
 70
   192
  0
VERTEX
  5
270
330
26D
100
AcDbEntity
  8
0
 62
     0
100
AcDbVertex
100
AcDbPolyFaceMeshVertex
 10
131.5
 20
5.00000000000206
 30
101.5
 70
   192
  0
VERTEX
  5
271
330
26D
100
AcDbEntity
  8
0
 62
     0
100
AcDbVertex
100
AcDbPolyFaceMeshVertex
 10
131.5
 20
6.700000000002033
 30
6.500000000000075
 70
   192
  0
VERTEX
  5
272
330
26D
100
AcDbEntity
  8
0
 62
     0
100
AcDbFaceRecord
 10
0.0
 20
0.0
 30
0.0
 70
   128
 71
    -1
 72
     2
 73
     3
  0
VERTEX
  5
273
330
26D
100
AcDbEntity
  8
0
 62
     0
100
AcDbFaceRecord
 10
0.0
 20
0.0
 30
0.0
 70
   128
 71
    -2
 72
     1
 73
     4
  0
SEQEND
  5
274
330
26D
100
AcDbEntity
  8
0
 62
     0
  0
LINE
  5
275
330
1F
100
AcDbEntity
  8
0
 62
     0
100
AcDbLine
 10
131.5
 20
5.00000000000206
 30
6.500000000000072
 11
131.5
 21
5.00000000000206
 31
101.5
  0
LINE
  5
276
330
1F
100
AcDbEntity
  8
0
 62
     0
100
AcDbLine
 10
131.5
 20
6.700000000002033
 30
101.5
 11
131.5
 21
5.00000000000206
 31
101.5
  0
LINE
  5
277
330
1F
100
AcDbEntity
  8
0
 62
     0
100
AcDbLine
 10
131.5
 20
6.700000000002033
 30
6.500000000000075
 11
131.5
 21
6.700000000002033
 31
101.5
  0
LINE
  5
278
330
1F
100
AcDbEntity
  8
0
 62
     0
100
AcDbLine
 10
131.5
 20
5.00000000000206
 30
6.500000000000072
 11
131.5
 21
6.700000000002033
 31
6.500000000000075
  0
POLYLINE
  5
279
330
1F
100
AcDbEntity
  8
0
 62
     0
100
AcDbPolyFaceMesh
 66
     1
 10
0.0
 20
0.0
 30
0.0
 70
    64
 71
     4
 72
     2
1001
ACAD_MATERIAL_MAPPER
1070
     1
1070
     1
1070
     1
1011
0.0
1021
0.0
1031
0.0
1011
0.0
1021
2.54
1031
-0.0000000000000011
1011
0.0
1021
0.0
1031
2.539999999999999
1011
1.0
1021
0.0
1031
0.0
  0
VERTEX
  5
27A
330
279
100
AcDbEntity
  8
0
 62
     0
100
AcDbVertex
100
AcDbPolyFaceMeshVertex
 10
71.25000000000001
 20
6.700000000001979
 30
6.50000000000006
 70
   192
  0
VERTEX
  5
27B
330
279
100
AcDbEntity
  8
0
 62
     0
100
AcDbVertex
100
AcDbPolyFaceMeshVertex
 10
71.25000000000001
 20
5.000000000002005
 30
101.4999999999999
 70
   192
  0
VERTEX
  5
27C
330
279
100
AcDbEntity
  8
0
 62
     0
100
AcDbVertex
100
AcDbPolyFaceMeshVertex
 10
71.25000000000001
 20
5.000000000002005
 30
6.50000000000006
 70
   192
  0
VERTEX
  5
27D
330
279
100
AcDbEntity
  8
0
 62
     0
100
AcDbVertex
100
AcDbPolyFaceMeshVertex
 10
71.25000000000001
 20
6.700000000001979
 30
101.4999999999999
 70
   192
  0
VERTEX
  5
27E
330
279
100
AcDbEntity
  8
0
 62
     0
100
AcDbFaceRecord
 10
0.0
 20
0.0
 30
0.0
 70
   128
 71
    -1
 72
     2
 73
     3
  0
VERTEX
  5
27F
330
279
100
AcDbEntity
  8
0
 62
     0
100
AcDbFaceRecord
 10
0.0
 20
0.0
 30
0.0
 70
   128
 71
    -2
 72
     1
 73
     4
  0
SEQEND
  5
280
330
279
100
AcDbEntity
  8
0
 62
     0
  0
LINE
  5
281
330
1F
100
AcDbEntity
  8
0
 62
     0
100
AcDbLine
 10
71.25000000000001
 20
6.700000000001979
 30
6.50000000000006
 11
71.25000000000001
 21
6.700000000001979
 31
101.4999999999999
  0
LINE
  5
282
330
1F
100
AcDbEntity
  8
0
 62
     0
100
AcDbLine
 10
71.25000000000001
 20
5.000000000002005
 30
101.4999999999999
 11
71.25000000000001
 21
6.700000000001979
 31
101.4999999999999
  0
LINE
  5
283
330
1F
100
AcDbEntity
  8
0
 62
     0
100
AcDbLine
 10
71.25000000000001
 20
5.000000000002005
 30
6.50000000000006
 11
71.25000000000001
 21
5.000000000002005
 31
101.4999999999999
  0
LINE
  5
284
330
1F
100
AcDbEntity
  8
0
 62
     0
100
AcDbLine
 10
71.25000000000001
 20
5.000000000002005
 30
6.50000000000006
 11
71.25000000000001
 21
6.700000000001979
 31
6.50000000000006
  0
POLYLINE
  5
285
330
1F
100
AcDbEntity
  8
0
 62
     0
100
AcDbPolyFaceMesh
 66
     1
 10
0.0
 20
0.0
 30
0.0
 70
    64
 71
     4
 72
     2
1001
ACAD_MATERIAL_MAPPER
1070
     1
1070
     1
1070
     1
1011
0.0
1021
-0.0000000000021324
1031
0.0000000000000433
1011
0.0
1021
-2.540000000002134
1031
0.0000000000000433
1011
0.0
1021
-0.0000000000021324
1031
2.540000000000044
1011
1.0
1021
-0.0000000000021324
1031
0.0000000000000433
  0
VERTEX
  5
286
330
285
100
AcDbEntity
  8
0
 62
     0
100
AcDbVertex
100
AcDbPolyFaceMeshVertex
 10
132.3999999999999
 20
9.50000000000212
 30
102.4000000000001
 70
   192
  0
VERTEX
  5
287
330
285
100
AcDbEntity
  8
0
 62
     0
100
AcDbVertex
100
AcDbPolyFaceMeshVertex
 10
132.3999999999999
 20
6.700000000002034
 30
5.599999999999917
 70
   192
  0
VERTEX
  5
288
330
285
100
AcDbEntity
  8
0
 62
     0
100
AcDbVertex
100
AcDbPolyFaceMeshVertex
 10
132.4000000000001
 20
6.700000000002034
 30
102.4000000000001
 70
   192
  0
VERTEX
  5
289
330
285
100
AcDbEntity
  8
0
 62
     0
100
AcDbVertex
100
AcDbPolyFaceMeshVertex
 10
132.4000000000001
 20
9.50000000000212
 30
5.599999999999918
 70
   192
  0
VERTEX
  5
28A
330
285
100
AcDbEntity
  8
0
 62
     0
100
AcDbFaceRecord
 10
0.0
 20
0.0
 30
0.0
 70
   128
 71
    -1
 72
     2
 73
     3
  0
VERTEX
  5
28B
330
285
100
AcDbEntity
  8
0
 62
     0
100
AcDbFaceRecord
 10
0.0
 20
0.0
 30
0.0
 70
   128
 71
    -2
 72
     1
 73
     4
  0
SEQEND
  5
28C
330
285
100
AcDbEntity
  8
0
 62
     0
  0
LINE
  5
28D
330
1F
100
AcDbEntity
  8
0
 62
     0
100
AcDbLine
 10
132.3999999999999
 20
6.700000000002034
 30
5.599999999999917
 11
132.4000000000001
 21
6.700000000002034
 31
102.4000000000001
  0
LINE
  5
28E
330
1F
100
AcDbEntity
  8
0
 62
     0
100
AcDbLine
 10
132.3999999999999
 20
9.50000000000212
 30
102.4000000000001
 11
132.4000000000001
 21
6.700000000002034
 31
102.4000000000001
  0
LINE
  5
28F
330
1F
100
AcDbEntity
  8
0
 62
     0
100
AcDbLine
 10
132.4000000000001
 20
9.50000000000212
 30
5.599999999999918
 11
132.3999999999999
 21
9.50000000000212
 31
102.4000000000001
  0
LINE
  5
290
330
1F
100
AcDbEntity
  8
0
 62
     0
100
AcDbLine
 10
132.3999999999999
 20
6.700000000002034
 30
5.599999999999917
 11
132.4000000000001
 21
9.50000000000212
 31
5.599999999999918
  0
POLYLINE
  5
291
330
1F
100
AcDbEntity
  8
0
 62
     0
100
AcDbPolyFaceMesh
 66
     1
 10
0.0
 20
0.0
 30
0.0
 70
    64
 71
     5
 72
     3
1001
ACAD_MATERIAL_MAPPER
1070
     1
1070
     1
1070
     1
1011
0.0000000000000012
1021
0.0000000000001854
1031
0.0
1011
-2.539999999999999
1021
0.0000000000001854
1031
0.0
1011
0.0000000000000012
1021
2.540000000000186
1031
0.0
1011
0.0000000000000012
1021
0.0000000000001854
1031
1.0
  0
VERTEX
  5
292
330
291
100
AcDbEntity
  8
0
 62
     0
100
AcDbVertex
100
AcDbPolyFaceMeshVertex
 10
135.9999999999998
 20
9.499999999999767
 30
106.0
 70
   192
  0
VERTEX
  5
293
330
291
100
AcDbEntity
  8
0
 62
     0
100
AcDbVertex
100
AcDbPolyFaceMeshVertex
 10
66.75000000000013
 20
5.000000000002001
 30
106.0
 70
   192
  0
VERTEX
  5
294
330
291
100
AcDbEntity
  8
0
 62
     0
100
AcDbVertex
100
AcDbPolyFaceMeshVertex
 10
66.75000000000013
 20
9.50000000000206
 30
106.0
 70
   192
  0
VERTEX
  5
295
330
291
100
AcDbEntity
  8
0
 62
     0
100
AcDbVertex
100
AcDbPolyFaceMeshVertex
 10
71.25000000000023
 20
5.000000000002088
 30
106.0
 70
   192
  0
VERTEX
  5
296
330
291
100
AcDbEntity
  8
0
 62
     0
100
AcDbVertex
100
AcDbPolyFaceMeshVertex
 10
136.0000000000001
 20
5.000000000002063
 30
106.0
 70
   192
  0
VERTEX
  5
297
330
291
100
AcDbEntity
  8
0
 62
     0
100
AcDbFaceRecord
 10
0.0
 20
0.0
 30
0.0
 70
   128
 71
    -1
 72
     2
 73
     3
  0
VERTEX
  5
298
330
291
100
AcDbEntity
  8
0
 62
     0
100
AcDbFaceRecord
 10
0.0
 20
0.0
 30
0.0
 70
   128
 71
    -2
 72
    -1
 73
     4
  0
VERTEX
  5
299
330
291
100
AcDbEntity
  8
0
 62
     0
100
AcDbFaceRecord
 10
0.0
 20
0.0
 30
0.0
 70
   128
 71
    -4
 72
     1
 73
     5
  0
SEQEND
  5
29A
330
291
100
AcDbEntity
  8
0
 62
     0
  0
LINE
  5
29B
330
1F
100
AcDbEntity
  8
0
 62
     0
100
AcDbLine
 10
136.0000000000001
 20
5.000000000002063
 30
106.0
 11
71.25000000000023
 21
5.000000000002088
 31
106.0
  0
LINE
  5
29C
330
1F
100
AcDbEntity
  8
0
 62
     0
100
AcDbLine
 10
66.75000000000013
 20
5.000000000002001
 30
106.0
 11
71.25000000000023
 21
5.000000000002088
 31
106.0
  0
LINE
  5
29D
330
1F
100
AcDbEntity
  8
0
 62
     0
100
AcDbLine
 10
66.75000000000013
 20
5.000000000002001
 30
106.0
 11
66.75000000000013
 21
9.50000000000206
 31
106.0
  0
LINE
  5
29E
330
1F
100
AcDbEntity
  8
0
 62
     0
100
AcDbLine
 10
135.9999999999998
 20
9.499999999999767
 30
106.0
 11
66.75000000000013
 21
9.50000000000206
 31
106.0
  0
LINE
  5
29F
330
1F
100
AcDbEntity
  8
0
 62
     0
100
AcDbLine
 10
136.0000000000001
 20
5.000000000002063
 30
106.0
 11
135.9999999999998
 21
9.499999999999767
 31
106.0
  0
POLYLINE
  5
2A0
330
1F
100
AcDbEntity
  8
0
 62
     0
100
AcDbPolyFaceMesh
 66
     1
 10
0.0
 20
0.0
 30
0.0
 70
    64
 71
     4
 72
     2
1001
ACAD_MATERIAL_MAPPER
1070
     1
1070
     1
1070
     1
1011
0.0
1021
0.0
1031
0.0000000000000027
1011
0.0
1021
2.540000000000001
1031
0.0000000000000027
1011
0.0
1021
0.0
1031
2.540000000000002
1011
1.0
1021
0.0
1031
0.0000000000000027
  0
VERTEX
  5
2A1
330
2A0
100
AcDbEntity
  8
0
 62
     0
100
AcDbVertex
100
AcDbPolyFaceMeshVertex
 10
70.35000000000004
 20
9.500000000002064
 30
5.599999999999903
 70
   192
  0
VERTEX
  5
2A2
330
2A0
100
AcDbEntity
  8
0
 62
     0
100
AcDbVertex
100
AcDbPolyFaceMeshVertex
 10
70.35000000000004
 20
6.700000000001978
 30
102.4000000000001
 70
   192
  0
VERTEX
  5
2A3
330
2A0
100
AcDbEntity
  8
0
 62
     0
100
AcDbVertex
100
AcDbPolyFaceMeshVertex
 10
70.35000000000004
 20
6.700000000001978
 30
5.599999999999903
 70
   192
  0
VERTEX
  5
2A4
330
2A0
100
AcDbEntity
  8
0
 62
     0
100
AcDbVertex
100
AcDbPolyFaceMeshVertex
 10
70.35000000000004
 20
9.500000000002064
 30
102.4000000000001
 70
   192
  0
VERTEX
  5
2A5
330
2A0
100
AcDbEntity
  8
0
 62
     0
100
AcDbFaceRecord
 10
0.0
 20
0.0
 30
0.0
 70
   128
 71
    -1
 72
     2
 73
     3
  0
VERTEX
  5
2A6
330
2A0
100
AcDbEntity
  8
0
 62
     0
100
AcDbFaceRecord
 10
0.0
 20
0.0
 30
0.0
 70
   128
 71
    -2
 72
     1
 73
     4
  0
SEQEND
  5
2A7
330
2A0
100
AcDbEntity
  8
0
 62
     0
  0
LINE
  5
2A8
330
1F
100
AcDbEntity
  8
0
 62
     0
100
AcDbLine
 10
70.35000000000004
 20
9.500000000002064
 30
5.599999999999903
 11
70.35000000000004
 21
9.500000000002064
 31
102.4000000000001
  0
LINE
  5
2A9
330
1F
100
AcDbEntity
  8
0
 62
     0
100
AcDbLine
 10
70.35000000000004
 20
6.700000000001978
 30
102.4000000000001
 11
70.35000000000004
 21
9.500000000002064
 31
102.4000000000001
  0
LINE
  5
2AA
330
1F
100
AcDbEntity
  8
0
 62
     0
100
AcDbLine
 10
70.35000000000004
 20
6.700000000001978
 30
5.599999999999903
 11
70.35000000000004
 21
6.700000000001978
 31
102.4000000000001
  0
LINE
  5
2AB
330
1F
100
AcDbEntity
  8
0
 62
     0
100
AcDbLine
 10
70.35000000000004
 20
6.700000000001978
 30
5.599999999999903
 11
70.35000000000004
 21
9.500000000002064
 31
5.599999999999903
  0
POLYLINE
  5
2AC
330
1F
100
AcDbEntity
  8
0
 62
     0
100
AcDbPolyFaceMesh
 66
     1
 10
0.0
 20
0.0
 30
0.0
 70
    64
 71
     4
 72
     2
1001
ACAD_MATERIAL_MAPPER
1070
     1
1070
     1
1070
     1
1011
-0.0000000000001013
1021
0.0
1031
0.0
1011
-2.540000000000101
1021
0.0000000000000001
1031
0.0
1011
-0.0000000000001013
1021
2.54
1031
0.0
1011
-0.0000000000001013
1021
0.0
1031
1.0
  0
VERTEX
  5
2AD
330
2AC
100
AcDbEntity
  8
0
 62
     0
100
AcDbVertex
100
AcDbPolyFaceMeshVertex
 10
132.3999999999999
 20
9.50000000000212
 30
102.4000000000001
 70
   192
  0
VERTEX
  5
2AE
330
2AC
100
AcDbEntity
  8
0
 62
     0
100
AcDbVertex
100
AcDbPolyFaceMeshVertex
 10
70.35000000000004
 20
6.700000000001978
 30
102.4000000000001
 70
   192
  0
VERTEX
  5
2AF
330
2AC
100
AcDbEntity
  8
0
 62
     0
100
AcDbVertex
100
AcDbPolyFaceMeshVertex
 10
70.35000000000004
 20
9.500000000002064
 30
102.4000000000001
 70
   192
  0
VERTEX
  5
2B0
330
2AC
100
AcDbEntity
  8
0
 62
     0
100
AcDbVertex
100
AcDbPolyFaceMeshVertex
 10
132.4000000000001
 20
6.700000000002034
 30
102.4000000000001
 70
   192
  0
VERTEX
  5
2B1
330
2AC
100
AcDbEntity
  8
0
 62
     0
100
AcDbFaceRecord
 10
0.0
 20
0.0
 30
0.0
 70
   128
 71
    -1
 72
     2
 73
     3
  0
VERTEX
  5
2B2
330
2AC
100
AcDbEntity
  8
0
 62
     0
100
AcDbFaceRecord
 10
0.0
 20
0.0
 30
0.0
 70
   128
 71
    -2
 72
     1
 73
     4
  0
SEQEND
  5
2B3
330
2AC
100
AcDbEntity
  8
0
 62
     0
  0
LINE
  5
2B4
330
1F
100
AcDbEntity
  8
0
 62
     0
100
AcDbLine
 10
132.3999999999999
 20
9.50000000000212
 30
102.4000000000001
 11
132.4000000000001
 21
6.700000000002034
 31
102.4000000000001
  0
LINE
  5
2B5
330
1F
100
AcDbEntity
  8
0
 62
     0
100
AcDbLine
 10
132.4000000000001
 20
6.700000000002034
 30
102.4000000000001
 11
70.35000000000004
 21
6.700000000001978
 31
102.4000000000001
  0
LINE
  5
2B6
330
1F
100
AcDbEntity
  8
0
 62
     0
100
AcDbLine
 10
70.35000000000004
 20
6.700000000001978
 30
102.4000000000001
 11
70.35000000000004
 21
9.500000000002064
 31
102.4000000000001
  0
LINE
  5
2B7
330
1F
100
AcDbEntity
  8
0
 62
     0
100
AcDbLine
 10
132.3999999999999
 20
9.50000000000212
 30
102.4000000000001
 11
70.35000000000004
 21
9.500000000002064
 31
102.4000000000001
  0
POLYLINE
  5
2B8
330
1F
100
AcDbEntity
  8
0
 62
     0
100
AcDbPolyFaceMesh
 66
     1
 10
0.0
 20
0.0
 30
0.0
 70
    64
 71
     4
 72
     2
1001
ACAD_MATERIAL_MAPPER
1070
     1
1070
     1
1070
     1
1011
-0.0000000000001575
1021
-0.0000000000000072
1031
0.0
1011
-2.540000000000159
1021
-0.0000000000000072
1031
0.0
1011
-0.0000000000001575
1021
2.539999999999992
1031
0.0
1011
-0.0000000000001575
1021
-0.0000000000000072
1031
1.0
  0
VERTEX
  5
2B9
330
2B8
100
AcDbEntity
  8
0
 62
     0
100
AcDbVertex
100
AcDbPolyFaceMeshVertex
 10
131.5
 20
6.700000000002033
 30
101.5
 70
   192
  0
VERTEX
  5
2BA
330
2B8
100
AcDbEntity
  8
0
 62
     0
100
AcDbVertex
100
AcDbPolyFaceMeshVertex
 10
71.25000000000001
 20
5.000000000002005
 30
101.4999999999999
 70
   192
  0
VERTEX
  5
2BB
330
2B8
100
AcDbEntity
  8
0
 62
     0
100
AcDbVertex
100
AcDbPolyFaceMeshVertex
 10
71.25000000000001
 20
6.700000000001979
 30
101.4999999999999
 70
   192
  0
VERTEX
  5
2BC
330
2B8
100
AcDbEntity
  8
0
 62
     0
100
AcDbVertex
100
AcDbPolyFaceMeshVertex
 10
131.5
 20
5.00000000000206
 30
101.5
 70
   192
  0
VERTEX
  5
2BD
330
2B8
100
AcDbEntity
  8
0
 62
     0
100
AcDbFaceRecord
 10
0.0
 20
0.0
 30
0.0
 70
   128
 71
    -1
 72
     2
 73
     3
  0
VERTEX
  5
2BE
330
2B8
100
AcDbEntity
  8
0
 62
     0
100
AcDbFaceRecord
 10
0.0
 20
0.0
 30
0.0
 70
   128
 71
    -2
 72
     1
 73
     4
  0
SEQEND
  5
2BF
330
2B8
100
AcDbEntity
  8
0
 62
     0
  0
LINE
  5
2C0
330
1F
100
AcDbEntity
  8
0
 62
     0
100
AcDbLine
 10
131.5
 20
6.700000000002033
 30
101.5
 11
71.25000000000001
 21
6.700000000001979
 31
101.4999999999999
  0
LINE
  5
2C1
330
1F
100
AcDbEntity
  8
0
 62
     0
100
AcDbLine
 10
131.5
 20
6.700000000002033
 30
101.5
 11
131.5
 21
5.00000000000206
 31
101.5
  0
LINE
  5
2C2
330
1F
100
AcDbEntity
  8
0
 62
     0
100
AcDbLine
 10
131.5
 20
5.00000000000206
 30
101.5
 11
71.25000000000001
 21
5.000000000002005
 31
101.4999999999999
  0
LINE
  5
2C3
330
1F
100
AcDbEntity
  8
0
 62
     0
100
AcDbLine
 10
71.25000000000001
 20
5.000000000002005
 30
101.4999999999999
 11
71.25000000000001
 21
6.700000000001979
 31
101.4999999999999
  0
POLYLINE
  5
2C4
330
1F
100
AcDbEntity
  8
0
 62
     0
100
AcDbPolyFaceMesh
 66
     1
 10
0.0
 20
0.0
 30
0.0
 70
    64
 71
     4
 72
     2
1001
ACAD_MATERIAL_MAPPER
1070
     1
1070
     1
1070
     1
1011
0.0
1021
0.0
1031
0.0
1011
2.539999999999989
1021
0.0
1031
0.0
1011
0.0
1021
0.0
1031
2.540000000000004
1011
0.0
1021
1.0
1031
0.0
  0
VERTEX
  5
2C5
330
2C4
100
AcDbEntity
  8
0
 62
     0
100
AcDbVertex
100
AcDbPolyFaceMeshVertex
 10
67.65000000000012
 20
5.000000000002085
 30
102.4000000000001
 70
   192
  0
VERTEX
  5
2C6
330
2C4
100
AcDbEntity
  8
0
 62
     0
100
AcDbVertex
100
AcDbPolyFaceMeshVertex
 10
66.75000000000013
 20
5.000000000002043
 30
5.599999999999918
 70
   192
  0
VERTEX
  5
2C7
330
2C4
100
AcDbEntity
  8
0
 62
     0
100
AcDbVertex
100
AcDbPolyFaceMeshVertex
 10
67.65000000000032
 20
5.000000000002085
 30
5.599999999999918
 70
   192
  0
VERTEX
  5
2C8
330
2C4
100
AcDbEntity
  8
0
 62
     0
100
AcDbVertex
100
AcDbPolyFaceMeshVertex
 10
66.75000000000013
 20
5.000000000002043
 30
102.4000000000001
 70
   192
  0
VERTEX
  5
2C9
330
2C4
100
AcDbEntity
  8
0
 62
     0
100
AcDbFaceRecord
 10
0.0
 20
0.0
 30
0.0
 70
   128
 71
    -1
 72
     2
 73
     3
  0
VERTEX
  5
2CA
330
2C4
100
AcDbEntity
  8
0
 62
     0
100
AcDbFaceRecord
 10
0.0
 20
0.0
 30
0.0
 70
   128
 71
    -2
 72
     1
 73
     4
  0
SEQEND
  5
2CB
330
2C4
100
AcDbEntity
  8
0
 62
     0
  0
LINE
  5
2CC
330
1F
100
AcDbEntity
  8
0
 62
     0
100
AcDbLine
 10
66.75000000000013
 20
5.000000000002043
 30
5.599999999999918
 11
66.75000000000013
 21
5.000000000002043
 31
102.4000000000001
  0
LINE
  5
2CD
330
1F
100
AcDbEntity
  8
0
 62
     0
100
AcDbLine
 10
66.75000000000013
 20
5.000000000002043
 30
5.599999999999918
 11
67.65000000000032
 21
5.000000000002085
 31
5.599999999999918
  0
LINE
  5
2CE
330
1F
100
AcDbEntity
  8
0
 62
     0
100
AcDbLine
 10
67.65000000000032
 20
5.000000000002085
 30
5.599999999999918
 11
67.65000000000012
 21
5.000000000002085
 31
102.4000000000001
  0
LINE
  5
2CF
330
1F
100
AcDbEntity
  8
0
 62
     0
100
AcDbLine
 10
67.65000000000012
 20
5.000000000002085
 30
102.4000000000001
 11
66.75000000000013
 21
5.000000000002043
 31
102.4000000000001
  0
POLYLINE
  5
2D0
330
1F
100
AcDbEntity
  8
0
 62
     0
100
AcDbPolyFaceMesh
 66
     1
 10
0.0
 20
0.0
 30
0.0
 70
    64
 71
     5
 72
     3
1001
ACAD_MATERIAL_MAPPER
1070
     1
1070
     1
1070
     1
1011
0.0
1021
-0.0000000000000021
1031
0.0
1011
2.54
1021
-0.0000000000000021
1031
0.0
1011
0.0
1021
2.539999999999999
1031
0.0
1011
0.0
1021
-0.0000000000000021
1031
1.0
  0
VERTEX
  5
2D1
330
2D0
100
AcDbEntity
  8
0
 62
     0
100
AcDbVertex
100
AcDbPolyFaceMeshVertex
 10
67.6500000000001
 20
2.200000000002
 30
5.599999999999917
 70
   192
  0
VERTEX
  5
2D2
330
2D0
100
AcDbEntity
  8
0
 62
     0
100
AcDbVertex
100
AcDbPolyFaceMeshVertex
 10
5.600000000000061
 20
5.00000000000203
 30
5.599999999999903
 70
   192
  0
VERTEX
  5
2D3
330
2D0
100
AcDbEntity
  8
0
 62
     0
100
AcDbVertex
100
AcDbPolyFaceMeshVertex
 10
5.600000000000061
 20
2.200000000001944
 30
5.599999999999903
 70
   192
  0
VERTEX
  5
2D4
330
2D0
100
AcDbEntity
  8
0
 62
     0
100
AcDbVertex
100
AcDbPolyFaceMeshVertex
 10
66.75000000000013
 20
5.000000000002043
 30
5.599999999999918
 70
   192
  0
VERTEX
  5
2D5
330
2D0
100
AcDbEntity
  8
0
 62
     0
100
AcDbVertex
100
AcDbPolyFaceMeshVertex
 10
67.65000000000032
 20
5.000000000002085
 30
5.599999999999918
 70
   192
  0
VERTEX
  5
2D6
330
2D0
100
AcDbEntity
  8
0
 62
     0
100
AcDbFaceRecord
 10
0.0
 20
0.0
 30
0.0
 70
   128
 71
    -1
 72
     2
 73
     3
  0
VERTEX
  5
2D7
330
2D0
100
AcDbEntity
  8
0
 62
     0
100
AcDbFaceRecord
 10
0.0
 20
0.0
 30
0.0
 70
   128
 71
    -2
 72
    -1
 73
     4
  0
VERTEX
  5
2D8
330
2D0
100
AcDbEntity
  8
0
 62
     0
100
AcDbFaceRecord
 10
0.0
 20
0.0
 30
0.0
 70
   128
 71
    -4
 72
     1
 73
     5
  0
SEQEND
  5
2D9
330
2D0
100
AcDbEntity
  8
0
 62
     0
  0
LINE
  5
2DA
330
1F
100
AcDbEntity
  8
0
 62
     0
100
AcDbLine
 10
5.600000000000061
 20
2.200000000001944
 30
5.599999999999903
 11
5.600000000000061
 21
5.00000000000203
 31
5.599999999999903
  0
LINE
  5
2DB
330
1F
100
AcDbEntity
  8
0
 62
     0
100
AcDbLine
 10
5.600000000000061
 20
2.200000000001944
 30
5.599999999999903
 11
67.6500000000001
 21
2.200000000002
 31
5.599999999999917
  0
LINE
  5
2DC
330
1F
100
AcDbEntity
  8
0
 62
     0
100
AcDbLine
 10
67.6500000000001
 20
2.200000000002
 30
5.599999999999917
 11
67.65000000000032
 21
5.000000000002085
 31
5.599999999999918
  0
LINE
  5
2DD
330
1F
100
AcDbEntity
  8
0
 62
     0
100
AcDbLine
 10
66.75000000000013
 20
5.000000000002043
 30
5.599999999999918
 11
67.65000000000032
 21
5.000000000002085
 31
5.599999999999918
  0
LINE
  5
2DE
330
1F
100
AcDbEntity
  8
0
 62
     0
100
AcDbLine
 10
5.600000000000061
 20
5.00000000000203
 30
5.599999999999903
 11
66.75000000000013
 21
5.000000000002043
 31
5.599999999999918
  0
POLYLINE
  5
2DF
330
1F
100
AcDbEntity
  8
0
 62
     0
100
AcDbPolyFaceMesh
 66
     1
 10
0.0
 20
0.0
 30
0.0
 70
    64
 71
     6
 72
     4
1001
ACAD_MATERIAL_MAPPER
1070
     1
1070
     1
1070
     1
1011
0.0
1021
0.0000000000017145
1031
0.0
1011
0.0
1021
2.540000000001715
1031
0.0
1011
0.0
1021
0.0000000000017145
1031
2.54
1011
1.0
1021
0.0000000000017145
1031
0.0
  0
VERTEX
  5
2E0
330
2DF
100
AcDbEntity
  8
0
 62
     0
100
AcDbVertex
100
AcDbPolyFaceMeshVertex
 10
71.25000000000023
 20
5.000000000002088
 30
2.0
 70
   192
  0
VERTEX
  5
2E1
330
2DF
100
AcDbEntity
  8
0
 62
     0
100
AcDbVertex
100
AcDbPolyFaceMeshVertex
 10
71.25000000000023
 20
0.5000000000020283
 30
106.0
 70
   192
  0
VERTEX
  5
2E2
330
2DF
100
AcDbEntity
  8
0
 62
     0
100
AcDbVertex
100
AcDbPolyFaceMeshVertex
 10
71.25000000000023
 20
0.5000000000020283
 30
2.0
 70
   192
  0
VERTEX
  5
2E3
330
2DF
100
AcDbEntity
  8
0
 62
     0
100
AcDbVertex
100
AcDbPolyFaceMeshVertex
 10
71.25000000000001
 20
5.000000000002005
 30
6.50000000000006
 70
   192
  0
VERTEX
  5
2E4
330
2DF
100
AcDbEntity
  8
0
 62
     0
100
AcDbVertex
100
AcDbPolyFaceMeshVertex
 10
71.25000000000001
 20
5.000000000002005
 30
101.4999999999999
 70
   192
  0
VERTEX
  5
2E5
330
2DF
100
AcDbEntity
  8
0
 62
     0
100
AcDbVertex
100
AcDbPolyFaceMeshVertex
 10
71.25000000000023
 20
5.000000000002088
 30
106.0
 70
   192
  0
VERTEX
  5
2E6
330
2DF
100
AcDbEntity
  8
0
 62
     0
100
AcDbFaceRecord
 10
0.0
 20
0.0
 30
0.0
 70
   128
 71
    -1
 72
     2
 73
     3
  0
VERTEX
  5
2E7
330
2DF
100
AcDbEntity
  8
0
 62
     0
100
AcDbFaceRecord
 10
0.0
 20
0.0
 30
0.0
 70
   128
 71
    -2
 72
     1
 73
    -4
  0
VERTEX
  5
2E8
330
2DF
100
AcDbEntity
  8
0
 62
     0
100
AcDbFaceRecord
 10
0.0
 20
0.0
 30
0.0
 70
   128
 71
    -2
 72
     5
 73
     6
  0
VERTEX
  5
2E9
330
2DF
100
AcDbEntity
  8
0
 62
     0
100
AcDbFaceRecord
 10
0.0
 20
0.0
 30
0.0
 70
   128
 71
    -5
 72
    -2
 73
     4
  0
SEQEND
  5
2EA
330
2DF
100
AcDbEntity
  8
0
 62
     0
  0
LINE
  5
2EB
330
1F
100
AcDbEntity
  8
0
 62
     0
100
AcDbLine
 10
71.25000000000023
 20
5.000000000002088
 30
2.0
 11
71.25000000000023
 21
0.5000000000020283
 31
2.0
  0
LINE
  5
2EC
330
1F
100
AcDbEntity
  8
0
 62
     0
100
AcDbLine
 10
71.25000000000023
 20
5.000000000002088
 30
2.0
 11
71.25000000000001
 21
5.000000000002005
 31
6.50000000000006
  0
LINE
  5
2ED
330
1F
100
AcDbEntity
  8
0
 62
     0
100
AcDbLine
 10
71.25000000000001
 20
5.000000000002005
 30
6.50000000000006
 11
71.25000000000001
 21
5.000000000002005
 31
101.4999999999999
  0
LINE
  5
2EE
330
1F
100
AcDbEntity
  8
0
 62
     0
100
AcDbLine
 10
71.25000000000001
 20
5.000000000002005
 30
101.4999999999999
 11
71.25000000000023
 21
5.000000000002088
 31
106.0
  0
LINE
  5
2EF
330
1F
100
AcDbEntity
  8
0
 62
     0
100
AcDbLine
 10
71.25000000000023
 20
5.000000000002088
 30
106.0
 11
71.25000000000023
 21
0.5000000000020283
 31
106.0
  0
LINE
  5
2F0
330
1F
100
AcDbEntity
  8
0
 62
     0
100
AcDbLine
 10
71.25000000000023
 20
0.5000000000020283
 30
2.0
 11
71.25000000000023
 21
0.5000000000020283
 31
106.0
  0
POLYLINE
  5
2F1
330
1F
100
AcDbEntity
  8
0
 62
     0
100
AcDbPolyFaceMesh
 66
     1
 10
0.0
 20
0.0
 30
0.0
 70
    64
 71
    14
 72
    14
1001
ACAD_MATERIAL_MAPPER
1070
     1
1070
     1
1070
     1
1011
-0.0000000000000005
1021
0.0
1031
0.0000000000000002
1011
-2.54
1021
0.0
1031
0.0000000000000002
1011
-0.0000000000000009
1021
0.0
1031
2.539999999999999
1011
-0.0000000000000005
1021
1.0
1031
0.0000000000000002
  0
VERTEX
  5
2F2
330
2F1
100
AcDbEntity
  8
0
 62
     0
100
AcDbVertex
100
AcDbPolyFaceMeshVertex
 10
2.000000000000159
 20
5.000000000002027
 30
2.0
 70
   192
  0
VERTEX
  5
2F3
330
2F1
100
AcDbEntity
  8
0
 62
     0
100
AcDbVertex
100
AcDbPolyFaceMeshVertex
 10
5.600000000000061
 20
5.00000000000203
 30
5.599999999999903
 70
   192
  0
VERTEX
  5
2F4
330
2F1
100
AcDbEntity
  8
0
 62
     0
100
AcDbVertex
100
AcDbPolyFaceMeshVertex
 10
66.75000000000013
 20
5.000000000002001
 30
2.0
 70
   192
  0
VERTEX
  5
2F5
330
2F1
100
AcDbEntity
  8
0
 62
     0
100
AcDbVertex
100
AcDbPolyFaceMeshVertex
 10
2.000000000000159
 20
5.000000000002027
 30
106.0
 70
   192
  0
VERTEX
  5
2F6
330
2F1
100
AcDbEntity
  8
0
 62
     0
100
AcDbVertex
100
AcDbPolyFaceMeshVertex
 10
71.25000000000023
 20
5.000000000002088
 30
2.0
 70
   192
  0
VERTEX
  5
2F7
330
2F1
100
AcDbEntity
  8
0
 62
     0
100
AcDbVertex
100
AcDbPolyFaceMeshVertex
 10
5.600000000000061
 20
5.00000000000203
 30
102.4000000000001
 70
   192
  0
VERTEX
  5
2F8
330
2F1
100
AcDbEntity
  8
0
 62
     0
100
AcDbVertex
100
AcDbPolyFaceMeshVertex
 10
66.75000000000013
 20
5.000000000002043
 30
102.4000000000001
 70
   192
  0
VERTEX
  5
2F9
330
2F1
100
AcDbEntity
  8
0
 62
     0
100
AcDbVertex
100
AcDbPolyFaceMeshVertex
 10
67.65000000000012
 20
5.000000000002085
 30
102.4000000000001
 70
   192
  0
VERTEX
  5
2FA
330
2F1
100
AcDbEntity
  8
0
 62
     0
100
AcDbVertex
100
AcDbPolyFaceMeshVertex
 10
67.65000000000032
 20
5.000000000002085
 30
5.599999999999918
 70
   192
  0
VERTEX
  5
2FB
330
2F1
100
AcDbEntity
  8
0
 62
     0
100
AcDbVertex
100
AcDbPolyFaceMeshVertex
 10
71.25000000000001
 20
5.000000000002005
 30
6.50000000000006
 70
   192
  0
VERTEX
  5
2FC
330
2F1
100
AcDbEntity
  8
0
 62
     0
100
AcDbVertex
100
AcDbPolyFaceMeshVertex
 10
66.75000000000013
 20
5.000000000002043
 30
5.599999999999918
 70
   192
  0
VERTEX
  5
2FD
330
2F1
100
AcDbEntity
  8
0
 62
     0
100
AcDbVertex
100
AcDbPolyFaceMeshVertex
 10
71.25000000000001
 20
5.000000000002005
 30
101.4999999999999
 70
   192
  0
VERTEX
  5
2FE
330
2F1
100
AcDbEntity
  8
0
 62
     0
100
AcDbVertex
100
AcDbPolyFaceMeshVertex
 10
71.25000000000023
 20
5.000000000002088
 30
106.0
 70
   192
  0
VERTEX
  5
2FF
330
2F1
100
AcDbEntity
  8
0
 62
     0
100
AcDbVertex
100
AcDbPolyFaceMeshVertex
 10
66.75000000000013
 20
5.000000000002001
 30
106.0
 70
   192
  0
VERTEX
  5
300
330
2F1
100
AcDbEntity
  8
0
 62
     0
100
AcDbFaceRecord
 10
0.0
 20
0.0
 30
0.0
 70
   128
 71
    -1
 72
    -2
 73
     3
  0
VERTEX
  5
301
330
2F1
100
AcDbEntity
  8
0
 62
     0
100
AcDbFaceRecord
 10
0.0
 20
0.0
 30
0.0
 70
   128
 71
    -2
 72
     1
 73
    -4
  0
VERTEX
  5
302
330
2F1
100
AcDbEntity
  8
0
 62
     0
100
AcDbFaceRecord
 10
0.0
 20
0.0
 30
0.0
 70
   128
 71
    -3
 72
    -2
 73
     5
  0
VERTEX
  5
303
330
2F1
100
AcDbEntity
  8
0
 62
     0
100
AcDbFaceRecord
 10
0.0
 20
0.0
 30
0.0
 70
   128
 71
    -2
 72
    -4
 73
     6
  0
VERTEX
  5
304
330
2F1
100
AcDbEntity
  8
0
 62
     0
100
AcDbFaceRecord
 10
0.0
 20
0.0
 30
0.0
 70
   128
 71
    -6
 72
    -4
 73
     7
  0
VERTEX
  5
305
330
2F1
100
AcDbEntity
  8
0
 62
     0
100
AcDbFaceRecord
 10
0.0
 20
0.0
 30
0.0
 70
   128
 71
    -7
 72
    -4
 73
     8
  0
VERTEX
  5
306
330
2F1
100
AcDbEntity
  8
0
 62
     0
100
AcDbFaceRecord
 10
0.0
 20
0.0
 30
0.0
 70
   128
 71
    -5
 72
    -9
 73
    10
  0
VERTEX
  5
307
330
2F1
100
AcDbEntity
  8
0
 62
     0
100
AcDbFaceRecord
 10
0.0
 20
0.0
 30
0.0
 70
   128
 71
    -9
 72
    -5
 73
    -2
  0
VERTEX
  5
308
330
2F1
100
AcDbEntity
  8
0
 62
     0
100
AcDbFaceRecord
 10
0.0
 20
0.0
 30
0.0
 70
   128
 71
    -9
 72
     2
 73
    11
  0
VERTEX
  5
309
330
2F1
100
AcDbEntity
  8
0
 62
     0
100
AcDbFaceRecord
 10
0.0
 20
0.0
 30
0.0
 70
   128
 71
   -10
 72
     9
 73
    -8
  0
VERTEX
  5
30A
330
2F1
100
AcDbEntity
  8
0
 62
     0
100
AcDbFaceRecord
 10
0.0
 20
0.0
 30
0.0
 70
   128
 71
   -10
 72
    -8
 73
    12
  0
VERTEX
  5
30B
330
2F1
100
AcDbEntity
  8
0
 62
     0
100
AcDbFaceRecord
 10
0.0
 20
0.0
 30
0.0
 70
   128
 71
   -12
 72
    -8
 73
    13
  0
VERTEX
  5
30C
330
2F1
100
AcDbEntity
  8
0
 62
     0
100
AcDbFaceRecord
 10
0.0
 20
0.0
 30
0.0
 70
   128
 71
   -13
 72
    -8
 73
    -4
  0
VERTEX
  5
30D
330
2F1
100
AcDbEntity
  8
0
 62
     0
100
AcDbFaceRecord
 10
0.0
 20
0.0
 30
0.0
 70
   128
 71
   -13
 72
     4
 73
    14
  0
SEQEND
  5
30E
330
2F1
100
AcDbEntity
  8
0
 62
     0
  0
LINE
  5
30F
330
1F
100
AcDbEntity
  8
0
 62
     0
100
AcDbLine
 10
2.000000000000159
 20
5.000000000002027
 30
2.0
 11
2.000000000000159
 21
5.000000000002027
 31
106.0
  0
LINE
  5
310
330
1F
100
AcDbEntity
  8
0
 62
     0
100
AcDbLine
 10
2.000000000000159
 20
5.000000000002027
 30
106.0
 11
66.75000000000013
 21
5.000000000002001
 31
106.0
  0
LINE
  5
311
330
1F
100
AcDbEntity
  8
0
 62
     0
100
AcDbLine
 10
66.75000000000013
 20
5.000000000002001
 30
106.0
 11
71.25000000000023
 21
5.000000000002088
 31
106.0
  0
LINE
  5
312
330
1F
100
AcDbEntity
  8
0
 62
     0
100
AcDbLine
 10
71.25000000000001
 20
5.000000000002005
 30
101.4999999999999
 11
71.25000000000023
 21
5.000000000002088
 31
106.0
  0
LINE
  5
313
330
1F
100
AcDbEntity
  8
0
 62
     0
100
AcDbLine
 10
71.25000000000001
 20
5.000000000002005
 30
6.50000000000006
 11
71.25000000000001
 21
5.000000000002005
 31
101.4999999999999
  0
LINE
  5
314
330
1F
100
AcDbEntity
  8
0
 62
     0
100
AcDbLine
 10
71.25000000000023
 20
5.000000000002088
 30
2.0
 11
71.25000000000001
 21
5.000000000002005
 31
6.50000000000006
  0
LINE
  5
315
330
1F
100
AcDbEntity
  8
0
 62
     0
100
AcDbLine
 10
66.75000000000013
 20
5.000000000002001
 30
2.0
 11
71.25000000000023
 21
5.000000000002088
 31
2.0
  0
LINE
  5
316
330
1F
100
AcDbEntity
  8
0
 62
     0
100
AcDbLine
 10
2.000000000000159
 20
5.000000000002027
 30
2.0
 11
66.75000000000013
 21
5.000000000002001
 31
2.0
  0
LINE
  5
317
330
1F
100
AcDbEntity
  8
0
 62
     0
100
AcDbLine
 10
67.65000000000032
 20
5.000000000002085
 30
5.599999999999918
 11
67.65000000000012
 21
5.000000000002085
 31
102.4000000000001
  0
LINE
  5
318
330
1F
100
AcDbEntity
  8
0
 62
     0
100
AcDbLine
 10
67.65000000000012
 20
5.000000000002085
 30
102.4000000000001
 11
66.75000000000013
 21
5.000000000002043
 31
102.4000000000001
  0
LINE
  5
319
330
1F
100
AcDbEntity
  8
0
 62
     0
100
AcDbLine
 10
66.75000000000013
 20
5.000000000002043
 30
102.4000000000001
 11
5.600000000000061
 21
5.00000000000203
 31
102.4000000000001
  0
LINE
  5
31A
330
1F
100
AcDbEntity
  8
0
 62
     0
100
AcDbLine
 10
5.600000000000061
 20
5.00000000000203
 30
5.599999999999903
 11
5.600000000000061
 21
5.00000000000203
 31
102.4000000000001
  0
LINE
  5
31B
330
1F
100
AcDbEntity
  8
0
 62
     0
100
AcDbLine
 10
5.600000000000061
 20
5.00000000000203
 30
5.599999999999903
 11
66.75000000000013
 21
5.000000000002043
 31
5.599999999999918
  0
LINE
  5
31C
330
1F
100
AcDbEntity
  8
0
 62
     0
100
AcDbLine
 10
66.75000000000013
 20
5.000000000002043
 30
5.599999999999918
 11
67.65000000000032
 21
5.000000000002085
 31
5.599999999999918
  0
POLYLINE
  5
31D
330
1F
100
AcDbEntity
  8
0
 62
     0
100
AcDbPolyFaceMesh
 66
     1
 10
0.0
 20
0.0
 30
0.0
 70
    64
 71
     4
 72
     2
1001
ACAD_MATERIAL_MAPPER
1070
     1
1070
     1
1070
     1
1011
-0.0000000000000018
1021
-0.0000000000000064
1031
0.0
1011
2.539999999999999
1021
-0.0000000000000064
1031
0.0
1011
-0.0000000000000018
1021
2.539999999999994
1031
0.0
1011
-0.0000000000000018
1021
-0.0000000000000064
1031
1.0
  0
VERTEX
  5
31E
330
31D
100
AcDbEntity
  8
0
 62
     0
100
AcDbVertex
100
AcDbPolyFaceMeshVertex
 10
66.75000000000017
 20
0.5000000000020243
 30
6.500000000000072
 70
   192
  0
VERTEX
  5
31F
330
31D
100
AcDbEntity
  8
0
 62
     0
100
AcDbVertex
100
AcDbPolyFaceMeshVertex
 10
6.500000000000037
 20
2.200000000001945
 30
6.50000000000006
 70
   192
  0
VERTEX
  5
320
330
31D
100
AcDbEntity
  8
0
 62
     0
100
AcDbVertex
100
AcDbPolyFaceMeshVertex
 10
6.500000000000037
 20
0.5000000000019704
 30
6.50000000000006
 70
   192
  0
VERTEX
  5
321
330
31D
100
AcDbEntity
  8
0
 62
     0
100
AcDbVertex
100
AcDbPolyFaceMeshVertex
 10
66.75000000000017
 20
2.200000000001999
 30
6.500000000000075
 70
   192
  0
VERTEX
  5
322
330
31D
100
AcDbEntity
  8
0
 62
     0
100
AcDbFaceRecord
 10
0.0
 20
0.0
 30
0.0
 70
   128
 71
    -1
 72
     2
 73
     3
  0
VERTEX
  5
323
330
31D
100
AcDbEntity
  8
0
 62
     0
100
AcDbFaceRecord
 10
0.0
 20
0.0
 30
0.0
 70
   128
 71
    -2
 72
     1
 73
     4
  0
SEQEND
  5
324
330
31D
100
AcDbEntity
  8
0
 62
     0
  0
LINE
  5
325
330
1F
100
AcDbEntity
  8
0
 62
     0
100
AcDbLine
 10
6.500000000000037
 20
2.200000000001945
 30
6.50000000000006
 11
66.75000000000017
 21
2.200000000001999
 31
6.500000000000075
  0
LINE
  5
326
330
1F
100
AcDbEntity
  8
0
 62
     0
100
AcDbLine
 10
6.500000000000037
 20
0.5000000000019704
 30
6.50000000000006
 11
6.500000000000037
 21
2.200000000001945
 31
6.50000000000006
  0
LINE
  5
327
330
1F
100
AcDbEntity
  8
0
 62
     0
100
AcDbLine
 10
6.500000000000037
 20
0.5000000000019704
 30
6.50000000000006
 11
66.75000000000017
 21
0.5000000000020243
 31
6.500000000000072
  0
LINE
  5
328
330
1F
100
AcDbEntity
  8
0
 62
     0
100
AcDbLine
 10
66.75000000000017
 20
0.5000000000020243
 30
6.500000000000072
 11
66.75000000000017
 21
2.200000000001999
 31
6.500000000000075
  0
POLYLINE
  5
329
330
1F
100
AcDbEntity
  8
0
 62
     0
100
AcDbPolyFaceMesh
 66
     1
 10
0.0
 20
0.0
 30
0.0
 70
    64
 71
     5
 72
     3
1001
ACAD_MATERIAL_MAPPER
1070
     1
1070
     1
1070
     1
1011
-0.0000000000000003
1021
-0.0000000000000001
1031
0.0
1011
-2.54
1021
-0.0000000000000001
1031
0.0
1011
-0.0000000000000003
1021
2.54
1031
0.0
1011
-0.0000000000000003
1021
-0.0000000000000001
1031
1.0
  0
VERTEX
  5
32A
330
329
100
AcDbEntity
  8
0
 62
     0
100
AcDbVertex
100
AcDbPolyFaceMeshVertex
 10
66.75000000000013
 20
5.000000000002001
 30
2.0
 70
   192
  0
VERTEX
  5
32B
330
329
100
AcDbEntity
  8
0
 62
     0
100
AcDbVertex
100
AcDbPolyFaceMeshVertex
 10
2.000000000000159
 20
0.5000000000019664
 30
2.0
 70
   192
  0
VERTEX
  5
32C
330
329
100
AcDbEntity
  8
0
 62
     0
100
AcDbVertex
100
AcDbPolyFaceMeshVertex
 10
2.000000000000159
 20
5.000000000002027
 30
2.0
 70
   192
  0
VERTEX
  5
32D
330
329
100
AcDbEntity
  8
0
 62
     0
100
AcDbVertex
100
AcDbPolyFaceMeshVertex
 10
71.25000000000023
 20
0.5000000000020283
 30
2.0
 70
   192
  0
VERTEX
  5
32E
330
329
100
AcDbEntity
  8
0
 62
     0
100
AcDbVertex
100
AcDbPolyFaceMeshVertex
 10
71.25000000000023
 20
5.000000000002088
 30
2.0
 70
   192
  0
VERTEX
  5
32F
330
329
100
AcDbEntity
  8
0
 62
     0
100
AcDbFaceRecord
 10
0.0
 20
0.0
 30
0.0
 70
   128
 71
    -1
 72
     2
 73
     3
  0
VERTEX
  5
330
330
329
100
AcDbEntity
  8
0
 62
     0
100
AcDbFaceRecord
 10
0.0
 20
0.0
 30
0.0
 70
   128
 71
    -2
 72
    -1
 73
     4
  0
VERTEX
  5
331
330
329
100
AcDbEntity
  8
0
 62
     0
100
AcDbFaceRecord
 10
0.0
 20
0.0
 30
0.0
 70
   128
 71
    -4
 72
     1
 73
     5
  0
SEQEND
  5
332
330
329
100
AcDbEntity
  8
0
 62
     0
  0
LINE
  5
333
330
1F
100
AcDbEntity
  8
0
 62
     0
100
AcDbLine
 10
2.000000000000159
 20
5.000000000002027
 30
2.0
 11
2.000000000000159
 21
0.5000000000019664
 31
2.0
  0
LINE
  5
334
330
1F
100
AcDbEntity
  8
0
 62
     0
100
AcDbLine
 10
2.000000000000159
 20
5.000000000002027
 30
2.0
 11
66.75000000000013
 21
5.000000000002001
 31
2.0
  0
LINE
  5
335
330
1F
100
AcDbEntity
  8
0
 62
     0
100
AcDbLine
 10
66.75000000000013
 20
5.000000000002001
 30
2.0
 11
71.25000000000023
 21
5.000000000002088
 31
2.0
  0
LINE
  5
336
330
1F
100
AcDbEntity
  8
0
 62
     0
100
AcDbLine
 10
71.25000000000023
 20
5.000000000002088
 30
2.0
 11
71.25000000000023
 21
0.5000000000020283
 31
2.0
  0
LINE
  5
337
330
1F
100
AcDbEntity
  8
0
 62
     0
100
AcDbLine
 10
71.25000000000023
 20
0.5000000000020283
 30
2.0
 11
2.000000000000159
 21
0.5000000000019664
 31
2.0
  0
POLYLINE
  5
338
330
1F
100
AcDbEntity
  8
0
 62
     0
100
AcDbPolyFaceMesh
 66
     1
 10
0.0
 20
0.0
 30
0.0
 70
    64
 71
     4
 72
     2
1001
ACAD_MATERIAL_MAPPER
1070
     1
1070
     1
1070
     1
1011
0.0
1021
0.0
1031
0.0
1011
0.0
1021
-2.54
1031
0.0
1011
0.0
1021
0.0
1031
2.54
1011
1.0
1021
0.0
1031
0.0
  0
VERTEX
  5
339
330
338
100
AcDbEntity
  8
0
 62
     0
100
AcDbVertex
100
AcDbPolyFaceMeshVertex
 10
2.000000000000159
 20
5.000000000002027
 30
106.0
 70
   192
  0
VERTEX
  5
33A
330
338
100
AcDbEntity
  8
0
 62
     0
100
AcDbVertex
100
AcDbPolyFaceMeshVertex
 10
2.000000000000159
 20
0.5000000000019664
 30
2.0
 70
   192
  0
VERTEX
  5
33B
330
338
100
AcDbEntity
  8
0
 62
     0
100
AcDbVertex
100
AcDbPolyFaceMeshVertex
 10
2.000000000000159
 20
0.5000000000019664
 30
106.0
 70
   192
  0
VERTEX
  5
33C
330
338
100
AcDbEntity
  8
0
 62
     0
100
AcDbVertex
100
AcDbPolyFaceMeshVertex
 10
2.000000000000159
 20
5.000000000002027
 30
2.0
 70
   192
  0
VERTEX
  5
33D
330
338
100
AcDbEntity
  8
0
 62
     0
100
AcDbFaceRecord
 10
0.0
 20
0.0
 30
0.0
 70
   128
 71
    -1
 72
     2
 73
     3
  0
VERTEX
  5
33E
330
338
100
AcDbEntity
  8
0
 62
     0
100
AcDbFaceRecord
 10
0.0
 20
0.0
 30
0.0
 70
   128
 71
    -2
 72
     1
 73
     4
  0
SEQEND
  5
33F
330
338
100
AcDbEntity
  8
0
 62
     0
  0
LINE
  5
340
330
1F
100
AcDbEntity
  8
0
 62
     0
100
AcDbLine
 10
2.000000000000159
 20
5.000000000002027
 30
2.0
 11
2.000000000000159
 21
0.5000000000019664
 31
2.0
  0
LINE
  5
341
330
1F
100
AcDbEntity
  8
0
 62
     0
100
AcDbLine
 10
2.000000000000159
 20
0.5000000000019664
 30
2.0
 11
2.000000000000159
 21
0.5000000000019664
 31
106.0
  0
LINE
  5
342
330
1F
100
AcDbEntity
  8
0
 62
     0
100
AcDbLine
 10
2.000000000000159
 20
5.000000000002027
 30
106.0
 11
2.000000000000159
 21
0.5000000000019664
 31
106.0
  0
LINE
  5
343
330
1F
100
AcDbEntity
  8
0
 62
     0
100
AcDbLine
 10
2.000000000000159
 20
5.000000000002027
 30
2.0
 11
2.000000000000159
 21
5.000000000002027
 31
106.0
  0
POLYLINE
  5
344
330
1F
100
AcDbEntity
  8
0
 62
     0
100
AcDbPolyFaceMesh
 66
     1
 10
0.0
 20
0.0
 30
0.0
 70
    64
 71
     4
 72
     2
1001
ACAD_MATERIAL_MAPPER
1070
     1
1070
     1
1070
     1
1011
0.0
1021
0.0
1031
-0.0000000000000011
1011
0.0
1021
2.54
1031
-0.0000000000000023
1011
0.0
1021
0.0
1031
2.539999999999998
1011
1.0
1021
0.0
1031
-0.0000000000000011
  0
VERTEX
  5
345
330
344
100
AcDbEntity
  8
0
 62
     0
100
AcDbVertex
100
AcDbPolyFaceMeshVertex
 10
6.500000000000037
 20
2.200000000001945
 30
6.50000000000006
 70
   192
  0
VERTEX
  5
346
330
344
100
AcDbEntity
  8
0
 62
     0
100
AcDbVertex
100
AcDbPolyFaceMeshVertex
 10
6.500000000000037
 20
0.5000000000019704
 30
101.4999999999999
 70
   192
  0
VERTEX
  5
347
330
344
100
AcDbEntity
  8
0
 62
     0
100
AcDbVertex
100
AcDbPolyFaceMeshVertex
 10
6.500000000000037
 20
0.5000000000019704
 30
6.50000000000006
 70
   192
  0
VERTEX
  5
348
330
344
100
AcDbEntity
  8
0
 62
     0
100
AcDbVertex
100
AcDbPolyFaceMeshVertex
 10
6.500000000000037
 20
2.200000000001945
 30
101.4999999999999
 70
   192
  0
VERTEX
  5
349
330
344
100
AcDbEntity
  8
0
 62
     0
100
AcDbFaceRecord
 10
0.0
 20
0.0
 30
0.0
 70
   128
 71
    -1
 72
     2
 73
     3
  0
VERTEX
  5
34A
330
344
100
AcDbEntity
  8
0
 62
     0
100
AcDbFaceRecord
 10
0.0
 20
0.0
 30
0.0
 70
   128
 71
    -2
 72
     1
 73
     4
  0
SEQEND
  5
34B
330
344
100
AcDbEntity
  8
0
 62
     0
  0
LINE
  5
34C
330
1F
100
AcDbEntity
  8
0
 62
     0
100
AcDbLine
 10
6.500000000000037
 20
2.200000000001945
 30
6.50000000000006
 11
6.500000000000037
 21
2.200000000001945
 31
101.4999999999999
  0
LINE
  5
34D
330
1F
100
AcDbEntity
  8
0
 62
     0
100
AcDbLine
 10
6.500000000000037
 20
0.5000000000019704
 30
101.4999999999999
 11
6.500000000000037
 21
2.200000000001945
 31
101.4999999999999
  0
LINE
  5
34E
330
1F
100
AcDbEntity
  8
0
 62
     0
100
AcDbLine
 10
6.500000000000037
 20
0.5000000000019704
 30
6.50000000000006
 11
6.500000000000037
 21
0.5000000000019704
 31
101.4999999999999
  0
LINE
  5
34F
330
1F
100
AcDbEntity
  8
0
 62
     0
100
AcDbLine
 10
6.500000000000037
 20
0.5000000000019704
 30
6.50000000000006
 11
6.500000000000037
 21
2.200000000001945
 31
6.50000000000006
  0
POLYLINE
  5
350
330
1F
100
AcDbEntity
  8
0
 62
     0
100
AcDbPolyFaceMesh
 66
     1
 10
0.0
 20
0.0
 30
0.0
 70
    64
 71
     4
 72
     2
1001
ACAD_MATERIAL_MAPPER
1070
     1
1070
     1
1070
     1
1011
0.0
1021
-0.0000000000000001
1031
0.0
1011
0.0
1021
-2.54
1031
0.0
1011
0.0
1021
-0.0000000000000001
1031
2.54
1011
1.0
1021
-0.0000000000000001
1031
0.0
  0
VERTEX
  5
351
330
350
100
AcDbEntity
  8
0
 62
     0
100
AcDbVertex
100
AcDbPolyFaceMeshVertex
 10
66.75000000000017
 20
2.200000000001999
 30
101.5
 70
   192
  0
VERTEX
  5
352
330
350
100
AcDbEntity
  8
0
 62
     0
100
AcDbVertex
100
AcDbPolyFaceMeshVertex
 10
66.75000000000017
 20
0.5000000000020243
 30
6.500000000000072
 70
   192
  0
VERTEX
  5
353
330
350
100
AcDbEntity
  8
0
 62
     0
100
AcDbVertex
100
AcDbPolyFaceMeshVertex
 10
66.75000000000017
 20
0.5000000000020243
 30
101.5
 70
   192
  0
VERTEX
  5
354
330
350
100
AcDbEntity
  8
0
 62
     0
100
AcDbVertex
100
AcDbPolyFaceMeshVertex
 10
66.75000000000017
 20
2.200000000001999
 30
6.500000000000075
 70
   192
  0
VERTEX
  5
355
330
350
100
AcDbEntity
  8
0
 62
     0
100
AcDbFaceRecord
 10
0.0
 20
0.0
 30
0.0
 70
   128
 71
    -1
 72
     2
 73
     3
  0
VERTEX
  5
356
330
350
100
AcDbEntity
  8
0
 62
     0
100
AcDbFaceRecord
 10
0.0
 20
0.0
 30
0.0
 70
   128
 71
    -2
 72
     1
 73
     4
  0
SEQEND
  5
357
330
350
100
AcDbEntity
  8
0
 62
     0
  0
LINE
  5
358
330
1F
100
AcDbEntity
  8
0
 62
     0
100
AcDbLine
 10
66.75000000000017
 20
0.5000000000020243
 30
6.500000000000072
 11
66.75000000000017
 21
0.5000000000020243
 31
101.5
  0
LINE
  5
359
330
1F
100
AcDbEntity
  8
0
 62
     0
100
AcDbLine
 10
66.75000000000017
 20
2.200000000001999
 30
101.5
 11
66.75000000000017
 21
0.5000000000020243
 31
101.5
  0
LINE
  5
35A
330
1F
100
AcDbEntity
  8
0
 62
     0
100
AcDbLine
 10
66.75000000000017
 20
2.200000000001999
 30
6.500000000000075
 11
66.75000000000017
 21
2.200000000001999
 31
101.5
  0
LINE
  5
35B
330
1F
100
AcDbEntity
  8
0
 62
     0
100
AcDbLine
 10
66.75000000000017
 20
0.5000000000020243
 30
6.500000000000072
 11
66.75000000000017
 21
2.200000000001999
 31
6.500000000000075
  0
POLYLINE
  5
35C
330
1F
100
AcDbEntity
  8
0
 62
     0
100
AcDbPolyFaceMesh
 66
     1
 10
0.0
 20
0.0
 30
0.0
 70
    64
 71
     5
 72
     3
1001
ACAD_MATERIAL_MAPPER
1070
     1
1070
     1
1070
     1
1011
0.0
1021
0.0
1031
0.0
1011
2.54
1021
0.0
1031
0.0
1011
0.0
1021
2.54
1031
0.0
1011
0.0
1021
0.0
1031
1.0
  0
VERTEX
  5
35D
330
35C
100
AcDbEntity
  8
0
 62
     0
100
AcDbVertex
100
AcDbPolyFaceMeshVertex
 10
71.25000000000023
 20
0.5000000000020283
 30
106.0
 70
   192
  0
VERTEX
  5
35E
330
35C
100
AcDbEntity
  8
0
 62
     0
100
AcDbVertex
100
AcDbPolyFaceMeshVertex
 10
2.000000000000159
 20
5.000000000002027
 30
106.0
 70
   192
  0
VERTEX
  5
35F
330
35C
100
AcDbEntity
  8
0
 62
     0
100
AcDbVertex
100
AcDbPolyFaceMeshVertex
 10
2.000000000000159
 20
0.5000000000019664
 30
106.0
 70
   192
  0
VERTEX
  5
360
330
35C
100
AcDbEntity
  8
0
 62
     0
100
AcDbVertex
100
AcDbPolyFaceMeshVertex
 10
66.75000000000013
 20
5.000000000002001
 30
106.0
 70
   192
  0
VERTEX
  5
361
330
35C
100
AcDbEntity
  8
0
 62
     0
100
AcDbVertex
100
AcDbPolyFaceMeshVertex
 10
71.25000000000023
 20
5.000000000002088
 30
106.0
 70
   192
  0
VERTEX
  5
362
330
35C
100
AcDbEntity
  8
0
 62
     0
100
AcDbFaceRecord
 10
0.0
 20
0.0
 30
0.0
 70
   128
 71
    -1
 72
     2
 73
     3
  0
VERTEX
  5
363
330
35C
100
AcDbEntity
  8
0
 62
     0
100
AcDbFaceRecord
 10
0.0
 20
0.0
 30
0.0
 70
   128
 71
    -2
 72
    -1
 73
     4
  0
VERTEX
  5
364
330
35C
100
AcDbEntity
  8
0
 62
     0
100
AcDbFaceRecord
 10
0.0
 20
0.0
 30
0.0
 70
   128
 71
    -4
 72
     1
 73
     5
  0
SEQEND
  5
365
330
35C
100
AcDbEntity
  8
0
 62
     0
  0
LINE
  5
366
330
1F
100
AcDbEntity
  8
0
 62
     0
100
AcDbLine
 10
71.25000000000023
 20
0.5000000000020283
 30
106.0
 11
2.000000000000159
 21
0.5000000000019664
 31
106.0
  0
LINE
  5
367
330
1F
100
AcDbEntity
  8
0
 62
     0
100
AcDbLine
 10
71.25000000000023
 20
5.000000000002088
 30
106.0
 11
71.25000000000023
 21
0.5000000000020283
 31
106.0
  0
LINE
  5
368
330
1F
100
AcDbEntity
  8
0
 62
     0
100
AcDbLine
 10
66.75000000000013
 20
5.000000000002001
 30
106.0
 11
71.25000000000023
 21
5.000000000002088
 31
106.0
  0
LINE
  5
369
330
1F
100
AcDbEntity
  8
0
 62
     0
100
AcDbLine
 10
2.000000000000159
 20
5.000000000002027
 30
106.0
 11
66.75000000000013
 21
5.000000000002001
 31
106.0
  0
LINE
  5
36A
330
1F
100
AcDbEntity
  8
0
 62
     0
100
AcDbLine
 10
2.000000000000159
 20
5.000000000002027
 30
106.0
 11
2.000000000000159
 21
0.5000000000019664
 31
106.0
  0
POLYLINE
  5
36B
330
1F
100
AcDbEntity
  8
0
 62
     0
100
AcDbPolyFaceMesh
 66
     1
 10
0.0
 20
0.0
 30
0.0
 70
    64
 71
     4
 72
     2
1001
ACAD_MATERIAL_MAPPER
1070
     1
1070
     1
1070
     1
1011
0.0
1021
-0.0000000000010902
1031
0.0
1011
0.0
1021
-2.54000000000109
1031
0.0
1011
0.0
1021
-0.0000000000010902
1031
2.54
1011
1.0
1021
-0.0000000000010902
1031
0.0
  0
VERTEX
  5
36C
330
36B
100
AcDbEntity
  8
0
 62
     0
100
AcDbVertex
100
AcDbPolyFaceMeshVertex
 10
67.65000000000012
 20
5.000000000002085
 30
102.4000000000001
 70
   192
  0
VERTEX
  5
36D
330
36B
100
AcDbEntity
  8
0
 62
     0
100
AcDbVertex
100
AcDbPolyFaceMeshVertex
 10
67.6500000000001
 20
2.200000000002
 30
5.599999999999917
 70
   192
  0
VERTEX
  5
36E
330
36B
100
AcDbEntity
  8
0
 62
     0
100
AcDbVertex
100
AcDbPolyFaceMeshVertex
 10
67.65000000000025
 20
2.200000000002
 30
102.4000000000001
 70
   192
  0
VERTEX
  5
36F
330
36B
100
AcDbEntity
  8
0
 62
     0
100
AcDbVertex
100
AcDbPolyFaceMeshVertex
 10
67.65000000000032
 20
5.000000000002085
 30
5.599999999999918
 70
   192
  0
VERTEX
  5
370
330
36B
100
AcDbEntity
  8
0
 62
     0
100
AcDbFaceRecord
 10
0.0
 20
0.0
 30
0.0
 70
   128
 71
    -1
 72
     2
 73
     3
  0
VERTEX
  5
371
330
36B
100
AcDbEntity
  8
0
 62
     0
100
AcDbFaceRecord
 10
0.0
 20
0.0
 30
0.0
 70
   128
 71
    -2
 72
     1
 73
     4
  0
SEQEND
  5
372
330
36B
100
AcDbEntity
  8
0
 62
     0
  0
LINE
  5
373
330
1F
100
AcDbEntity
  8
0
 62
     0
100
AcDbLine
 10
67.6500000000001
 20
2.200000000002
 30
5.599999999999917
 11
67.65000000000025
 21
2.200000000002
 31
102.4000000000001
  0
LINE
  5
374
330
1F
100
AcDbEntity
  8
0
 62
     0
100
AcDbLine
 10
67.65000000000012
 20
5.000000000002085
 30
102.4000000000001
 11
67.65000000000025
 21
2.200000000002
 31
102.4000000000001
  0
LINE
  5
375
330
1F
100
AcDbEntity
  8
0
 62
     0
100
AcDbLine
 10
67.65000000000032
 20
5.000000000002085
 30
5.599999999999918
 11
67.65000000000012
 21
5.000000000002085
 31
102.4000000000001
  0
LINE
  5
376
330
1F
100
AcDbEntity
  8
0
 62
     0
100
AcDbLine
 10
67.6500000000001
 20
2.200000000002
 30
5.599999999999917
 11
67.65000000000032
 21
5.000000000002085
 31
5.599999999999918
  0
POLYLINE
  5
377
330
1F
100
AcDbEntity
  8
0
 62
     0
100
AcDbPolyFaceMesh
 66
     1
 10
0.0
 20
0.0
 30
0.0
 70
    64
 71
     4
 72
     2
1001
ACAD_MATERIAL_MAPPER
1070
     1
1070
     1
1070
     1
1011
0.0
1021
0.0
1031
0.0
1011
0.0
1021
2.54
1031
0.0
1011
0.0
1021
0.0
1031
2.54
1011
1.0
1021
0.0
1031
0.0
  0
VERTEX
  5
378
330
377
100
AcDbEntity
  8
0
 62
     0
100
AcDbVertex
100
AcDbPolyFaceMeshVertex
 10
5.600000000000061
 20
5.00000000000203
 30
5.599999999999903
 70
   192
  0
VERTEX
  5
379
330
377
100
AcDbEntity
  8
0
 62
     0
100
AcDbVertex
100
AcDbPolyFaceMeshVertex
 10
5.600000000000061
 20
2.200000000001944
 30
102.4000000000001
 70
   192
  0
VERTEX
  5
37A
330
377
100
AcDbEntity
  8
0
 62
     0
100
AcDbVertex
100
AcDbPolyFaceMeshVertex
 10
5.600000000000061
 20
2.200000000001944
 30
5.599999999999903
 70
   192
  0
VERTEX
  5
37B
330
377
100
AcDbEntity
  8
0
 62
     0
100
AcDbVertex
100
AcDbPolyFaceMeshVertex
 10
5.600000000000061
 20
5.00000000000203
 30
102.4000000000001
 70
   192
  0
VERTEX
  5
37C
330
377
100
AcDbEntity
  8
0
 62
     0
100
AcDbFaceRecord
 10
0.0
 20
0.0
 30
0.0
 70
   128
 71
    -1
 72
     2
 73
     3
  0
VERTEX
  5
37D
330
377
100
AcDbEntity
  8
0
 62
     0
100
AcDbFaceRecord
 10
0.0
 20
0.0
 30
0.0
 70
   128
 71
    -2
 72
     1
 73
     4
  0
SEQEND
  5
37E
330
377
100
AcDbEntity
  8
0
 62
     0
  0
LINE
  5
37F
330
1F
100
AcDbEntity
  8
0
 62
     0
100
AcDbLine
 10
5.600000000000061
 20
5.00000000000203
 30
5.599999999999903
 11
5.600000000000061
 21
5.00000000000203
 31
102.4000000000001
  0
LINE
  5
380
330
1F
100
AcDbEntity
  8
0
 62
     0
100
AcDbLine
 10
5.600000000000061
 20
2.200000000001944
 30
102.4000000000001
 11
5.600000000000061
 21
5.00000000000203
 31
102.4000000000001
  0
LINE
  5
381
330
1F
100
AcDbEntity
  8
0
 62
     0
100
AcDbLine
 10
5.600000000000061
 20
2.200000000001944
 30
5.599999999999903
 11
5.600000000000061
 21
2.200000000001944
 31
102.4000000000001
  0
LINE
  5
382
330
1F
100
AcDbEntity
  8
0
 62
     0
100
AcDbLine
 10
5.600000000000061
 20
2.200000000001944
 30
5.599999999999903
 11
5.600000000000061
 21
5.00000000000203
 31
5.599999999999903
  0
POLYLINE
  5
383
330
1F
100
AcDbEntity
  8
0
 62
     0
100
AcDbPolyFaceMesh
 66
     1
 10
0.0
 20
0.0
 30
0.0
 70
    64
 71
     8
 72
     8
1001
ACAD_MATERIAL_MAPPER
1070
     1
1070
     1
1070
     1
1011
-0.0000000000000038
1021
0.0
1031
0.0000000000000016
1011
-2.540000000000004
1021
0.0
1031
0.0000000000000015
1011
-0.0000000000000017
1021
0.0
1031
2.540000000000003
1011
-0.0000000000000038
1021
1.0
1031
0.0000000000000016
  0
VERTEX
  5
384
330
383
100
AcDbEntity
  8
0
 62
     0
100
AcDbVertex
100
AcDbPolyFaceMeshVertex
 10
5.600000000000061
 20
2.200000000001944
 30
5.599999999999903
 70
   192
  0
VERTEX
  5
385
330
383
100
AcDbEntity
  8
0
 62
     0
100
AcDbVertex
100
AcDbPolyFaceMeshVertex
 10
6.500000000000037
 20
2.200000000001945
 30
6.50000000000006
 70
   192
  0
VERTEX
  5
386
330
383
100
AcDbEntity
  8
0
 62
     0
100
AcDbVertex
100
AcDbPolyFaceMeshVertex
 10
67.6500000000001
 20
2.200000000002
 30
5.599999999999917
 70
   192
  0
VERTEX
  5
387
330
383
100
AcDbEntity
  8
0
 62
     0
100
AcDbVertex
100
AcDbPolyFaceMeshVertex
 10
5.600000000000061
 20
2.200000000001944
 30
102.4000000000001
 70
   192
  0
VERTEX
  5
388
330
383
100
AcDbEntity
  8
0
 62
     0
100
AcDbVertex
100
AcDbPolyFaceMeshVertex
 10
6.500000000000037
 20
2.200000000001945
 30
101.4999999999999
 70
   192
  0
VERTEX
  5
389
330
383
100
AcDbEntity
  8
0
 62
     0
100
AcDbVertex
100
AcDbPolyFaceMeshVertex
 10
66.75000000000017
 20
2.200000000001999
 30
101.5
 70
   192
  0
VERTEX
  5
38A
330
383
100
AcDbEntity
  8
0
 62
     0
100
AcDbVertex
100
AcDbPolyFaceMeshVertex
 10
66.75000000000017
 20
2.200000000001999
 30
6.500000000000075
 70
   192
  0
VERTEX
  5
38B
330
383
100
AcDbEntity
  8
0
 62
     0
100
AcDbVertex
100
AcDbPolyFaceMeshVertex
 10
67.65000000000025
 20
2.200000000002
 30
102.4000000000001
 70
   192
  0
VERTEX
  5
38C
330
383
100
AcDbEntity
  8
0
 62
     0
100
AcDbFaceRecord
 10
0.0
 20
0.0
 30
0.0
 70
   128
 71
    -1
 72
    -2
 73
     3
  0
VERTEX
  5
38D
330
383
100
AcDbEntity
  8
0
 62
     0
100
AcDbFaceRecord
 10
0.0
 20
0.0
 30
0.0
 70
   128
 71
    -2
 72
     1
 73
    -4
  0
VERTEX
  5
38E
330
383
100
AcDbEntity
  8
0
 62
     0
100
AcDbFaceRecord
 10
0.0
 20
0.0
 30
0.0
 70
   128
 71
    -2
 72
    -4
 73
     5
  0
VERTEX
  5
38F
330
383
100
AcDbEntity
  8
0
 62
     0
100
AcDbFaceRecord
 10
0.0
 20
0.0
 30
0.0
 70
   128
 71
    -5
 72
    -4
 73
     6
  0
VERTEX
  5
390
330
383
100
AcDbEntity
  8
0
 62
     0
100
AcDbFaceRecord
 10
0.0
 20
0.0
 30
0.0
 70
   128
 71
    -3
 72
    -7
 73
     8
  0
VERTEX
  5
391
330
383
100
AcDbEntity
  8
0
 62
     0
100
AcDbFaceRecord
 10
0.0
 20
0.0
 30
0.0
 70
   128
 71
    -7
 72
    -3
 73
     2
  0
VERTEX
  5
392
330
383
100
AcDbEntity
  8
0
 62
     0
100
AcDbFaceRecord
 10
0.0
 20
0.0
 30
0.0
 70
   128
 71
    -8
 72
     7
 73
    -6
  0
VERTEX
  5
393
330
383
100
AcDbEntity
  8
0
 62
     0
100
AcDbFaceRecord
 10
0.0
 20
0.0
 30
0.0
 70
   128
 71
    -8
 72
    -6
 73
     4
  0
SEQEND
  5
394
330
383
100
AcDbEntity
  8
0
 62
     0
  0
LINE
  5
395
330
1F
100
AcDbEntity
  8
0
 62
     0
100
AcDbLine
 10
67.65000000000025
 20
2.200000000002
 30
102.4000000000001
 11
5.600000000000061
 21
2.200000000001944
 31
102.4000000000001
  0
LINE
  5
396
330
1F
100
AcDbEntity
  8
0
 62
     0
100
AcDbLine
 10
67.6500000000001
 20
2.200000000002
 30
5.599999999999917
 11
67.65000000000025
 21
2.200000000002
 31
102.4000000000001
  0
LINE
  5
397
330
1F
100
AcDbEntity
  8
0
 62
     0
100
AcDbLine
 10
5.600000000000061
 20
2.200000000001944
 30
5.599999999999903
 11
67.6500000000001
 21
2.200000000002
 31
5.599999999999917
  0
LINE
  5
398
330
1F
100
AcDbEntity
  8
0
 62
     0
100
AcDbLine
 10
5.600000000000061
 20
2.200000000001944
 30
5.599999999999903
 11
5.600000000000061
 21
2.200000000001944
 31
102.4000000000001
  0
LINE
  5
399
330
1F
100
AcDbEntity
  8
0
 62
     0
100
AcDbLine
 10
66.75000000000017
 20
2.200000000001999
 30
101.5
 11
6.500000000000037
 21
2.200000000001945
 31
101.4999999999999
  0
LINE
  5
39A
330
1F
100
AcDbEntity
  8
0
 62
     0
100
AcDbLine
 10
6.500000000000037
 20
2.200000000001945
 30
6.50000000000006
 11
6.500000000000037
 21
2.200000000001945
 31
101.4999999999999
  0
LINE
  5
39B
330
1F
100
AcDbEntity
  8
0
 62
     0
100
AcDbLine
 10
6.500000000000037
 20
2.200000000001945
 30
6.50000000000006
 11
66.75000000000017
 21
2.200000000001999
 31
6.500000000000075
  0
LINE
  5
39C
330
1F
100
AcDbEntity
  8
0
 62
     0
100
AcDbLine
 10
66.75000000000017
 20
2.200000000001999
 30
6.500000000000075
 11
66.75000000000017
 21
2.200000000001999
 31
101.5
  0
POLYLINE
  5
39D
330
1F
100
AcDbEntity
  8
0
 62
     0
100
AcDbPolyFaceMesh
 66
     1
 10
0.0
 20
0.0
 30
0.0
 70
    64
 71
     5
 72
     3
1001
ACAD_MATERIAL_MAPPER
1070
     1
1070
     1
1070
     1
1011
-0.0000000000000589
1021
-0.0000000000000059
1031
0.0
1011
-2.540000000000059
1021
-0.0000000000000059
1031
0.0
1011
-0.0000000000000589
1021
2.539999999999994
1031
0.0
1011
-0.0000000000000589
1021
-0.0000000000000059
1031
1.0
  0
VERTEX
  5
39E
330
39D
100
AcDbEntity
  8
0
 62
     0
100
AcDbVertex
100
AcDbPolyFaceMeshVertex
 10
66.75000000000013
 20
5.000000000002043
 30
102.4000000000001
 70
   192
  0
VERTEX
  5
39F
330
39D
100
AcDbEntity
  8
0
 62
     0
100
AcDbVertex
100
AcDbPolyFaceMeshVertex
 10
5.600000000000061
 20
2.200000000001944
 30
102.4000000000001
 70
   192
  0
VERTEX
  5
3A0
330
39D
100
AcDbEntity
  8
0
 62
     0
100
AcDbVertex
100
AcDbPolyFaceMeshVertex
 10
5.600000000000061
 20
5.00000000000203
 30
102.4000000000001
 70
   192
  0
VERTEX
  5
3A1
330
39D
100
AcDbEntity
  8
0
 62
     0
100
AcDbVertex
100
AcDbPolyFaceMeshVertex
 10
67.65000000000025
 20
2.200000000002
 30
102.4000000000001
 70
   192
  0
VERTEX
  5
3A2
330
39D
100
AcDbEntity
  8
0
 62
     0
100
AcDbVertex
100
AcDbPolyFaceMeshVertex
 10
67.65000000000012
 20
5.000000000002085
 30
102.4000000000001
 70
   192
  0
VERTEX
  5
3A3
330
39D
100
AcDbEntity
  8
0
 62
     0
100
AcDbFaceRecord
 10
0.0
 20
0.0
 30
0.0
 70
   128
 71
    -1
 72
     2
 73
     3
  0
VERTEX
  5
3A4
330
39D
100
AcDbEntity
  8
0
 62
     0
100
AcDbFaceRecord
 10
0.0
 20
0.0
 30
0.0
 70
   128
 71
    -2
 72
    -1
 73
     4
  0
VERTEX
  5
3A5
330
39D
100
AcDbEntity
  8
0
 62
     0
100
AcDbFaceRecord
 10
0.0
 20
0.0
 30
0.0
 70
   128
 71
    -4
 72
     1
 73
     5
  0
SEQEND
  5
3A6
330
39D
100
AcDbEntity
  8
0
 62
     0
  0
LINE
  5
3A7
330
1F
100
AcDbEntity
  8
0
 62
     0
100
AcDbLine
 10
67.65000000000012
 20
5.000000000002085
 30
102.4000000000001
 11
67.65000000000025
 21
2.200000000002
 31
102.4000000000001
  0
LINE
  5
3A8
330
1F
100
AcDbEntity
  8
0
 62
     0
100
AcDbLine
 10
67.65000000000025
 20
2.200000000002
 30
102.4000000000001
 11
5.600000000000061
 21
2.200000000001944
 31
102.4000000000001
  0
LINE
  5
3A9
330
1F
100
AcDbEntity
  8
0
 62
     0
100
AcDbLine
 10
5.600000000000061
 20
2.200000000001944
 30
102.4000000000001
 11
5.600000000000061
 21
5.00000000000203
 31
102.4000000000001
  0
LINE
  5
3AA
330
1F
100
AcDbEntity
  8
0
 62
     0
100
AcDbLine
 10
66.75000000000013
 20
5.000000000002043
 30
102.4000000000001
 11
5.600000000000061
 21
5.00000000000203
 31
102.4000000000001
  0
LINE
  5
3AB
330
1F
100
AcDbEntity
  8
0
 62
     0
100
AcDbLine
 10
67.65000000000012
 20
5.000000000002085
 30
102.4000000000001
 11
66.75000000000013
 21
5.000000000002043
 31
102.4000000000001
  0
POLYLINE
  5
3AC
330
1F
100
AcDbEntity
  8
0
 62
     0
100
AcDbPolyFaceMesh
 66
     1
 10
0.0
 20
0.0
 30
0.0
 70
    64
 71
     4
 72
     2
1001
ACAD_MATERIAL_MAPPER
1070
     1
1070
     1
1070
     1
1011
-0.0000000000000604
1021
0.0000000000000001
1031
0.0
1011
-2.54000000000006
1021
0.0000000000000001
1031
0.0
1011
-0.0000000000000604
1021
2.54
1031
0.0
1011
-0.0000000000000604
1021
0.0000000000000001
1031
1.0
  0
VERTEX
  5
3AD
330
3AC
100
AcDbEntity
  8
0
 62
     0
100
AcDbVertex
100
AcDbPolyFaceMeshVertex
 10
66.75000000000017
 20
2.200000000001999
 30
101.5
 70
   192
  0
VERTEX
  5
3AE
330
3AC
100
AcDbEntity
  8
0
 62
     0
100
AcDbVertex
100
AcDbPolyFaceMeshVertex
 10
6.500000000000037
 20
0.5000000000019704
 30
101.4999999999999
 70
   192
  0
VERTEX
  5
3AF
330
3AC
100
AcDbEntity
  8
0
 62
     0
100
AcDbVertex
100
AcDbPolyFaceMeshVertex
 10
6.500000000000037
 20
2.200000000001945
 30
101.4999999999999
 70
   192
  0
VERTEX
  5
3B0
330
3AC
100
AcDbEntity
  8
0
 62
     0
100
AcDbVertex
100
AcDbPolyFaceMeshVertex
 10
66.75000000000017
 20
0.5000000000020243
 30
101.5
 70
   192
  0
VERTEX
  5
3B1
330
3AC
100
AcDbEntity
  8
0
 62
     0
100
AcDbFaceRecord
 10
0.0
 20
0.0
 30
0.0
 70
   128
 71
    -1
 72
     2
 73
     3
  0
VERTEX
  5
3B2
330
3AC
100
AcDbEntity
  8
0
 62
     0
100
AcDbFaceRecord
 10
0.0
 20
0.0
 30
0.0
 70
   128
 71
    -2
 72
     1
 73
     4
  0
SEQEND
  5
3B3
330
3AC
100
AcDbEntity
  8
0
 62
     0
  0
LINE
  5
3B4
330
1F
100
AcDbEntity
  8
0
 62
     0
100
AcDbLine
 10
66.75000000000017
 20
2.200000000001999
 30
101.5
 11
6.500000000000037
 21
2.200000000001945
 31
101.4999999999999
  0
LINE
  5
3B5
330
1F
100
AcDbEntity
  8
0
 62
     0
100
AcDbLine
 10
66.75000000000017
 20
2.200000000001999
 30
101.5
 11
66.75000000000017
 21
0.5000000000020243
 31
101.5
  0
LINE
  5
3B6
330
1F
100
AcDbEntity
  8
0
 62
     0
100
AcDbLine
 10
66.75000000000017
 20
0.5000000000020243
 30
101.5
 11
6.500000000000037
 21
0.5000000000019704
 31
101.4999999999999
  0
LINE
  5
3B7
330
1F
100
AcDbEntity
  8
0
 62
     0
100
AcDbLine
 10
6.500000000000037
 20
0.5000000000019704
 30
101.4999999999999
 11
6.500000000000037
 21
2.200000000001945
 31
101.4999999999999
  0
POLYLINE
  5
3B8
330
1F
100
AcDbEntity
  8
0
 62
     0
100
AcDbPolyFaceMesh
 66
     1
 10
0.0
 20
0.0
 30
0.0
 70
    64
 71
     8
 72
     8
1001
ACAD_MATERIAL_MAPPER
1070
     1
1070
     1
1070
     1
1011
-0.0000000000000018
1021
0.0
1031
-0.0000000000000003
1011
2.539999999999999
1021
0.0
1031
-0.0000000000000003
1011
0.000000000000003
1021
0.0
1031
2.54
1011
-0.0000000000000018
1021
1.0
1031
-0.0000000000000003
  0
VERTEX
  5
3B9
330
3B8
100
AcDbEntity
  8
0
 62
     0
100
AcDbVertex
100
AcDbPolyFaceMeshVertex
 10
71.25000000000023
 20
0.5000000000020283
 30
2.0
 70
   192
  0
VERTEX
  5
3BA
330
3B8
100
AcDbEntity
  8
0
 62
     0
100
AcDbVertex
100
AcDbPolyFaceMeshVertex
 10
66.75000000000017
 20
0.5000000000020243
 30
6.500000000000072
 70
   192
  0
VERTEX
  5
3BB
330
3B8
100
AcDbEntity
  8
0
 62
     0
100
AcDbVertex
100
AcDbPolyFaceMeshVertex
 10
2.000000000000159
 20
0.5000000000019664
 30
2.0
 70
   192
  0
VERTEX
  5
3BC
330
3B8
100
AcDbEntity
  8
0
 62
     0
100
AcDbVertex
100
AcDbPolyFaceMeshVertex
 10
71.25000000000023
 20
0.5000000000020283
 30
106.0
 70
   192
  0
VERTEX
  5
3BD
330
3B8
100
AcDbEntity
  8
0
 62
     0
100
AcDbVertex
100
AcDbPolyFaceMeshVertex
 10
6.500000000000037
 20
0.5000000000019704
 30
6.50000000000006
 70
   192
  0
VERTEX
  5
3BE
330
3B8
100
AcDbEntity
  8
0
 62
     0
100
AcDbVertex
100
AcDbPolyFaceMeshVertex
 10
66.75000000000017
 20
0.5000000000020243
 30
101.5
 70
   192
  0
VERTEX
  5
3BF
330
3B8
100
AcDbEntity
  8
0
 62
     0
100
AcDbVertex
100
AcDbPolyFaceMeshVertex
 10
2.000000000000159
 20
0.5000000000019664
 30
106.0
 70
   192
  0
VERTEX
  5
3C0
330
3B8
100
AcDbEntity
  8
0
 62
     0
100
AcDbVertex
100
AcDbPolyFaceMeshVertex
 10
6.500000000000037
 20
0.5000000000019704
 30
101.4999999999999
 70
   192
  0
VERTEX
  5
3C1
330
3B8
100
AcDbEntity
  8
0
 62
     0
100
AcDbFaceRecord
 10
0.0
 20
0.0
 30
0.0
 70
   128
 71
    -1
 72
    -2
 73
     3
  0
VERTEX
  5
3C2
330
3B8
100
AcDbEntity
  8
0
 62
     0
100
AcDbFaceRecord
 10
0.0
 20
0.0
 30
0.0
 70
   128
 71
    -2
 72
     1
 73
    -4
  0
VERTEX
  5
3C3
330
3B8
100
AcDbEntity
  8
0
 62
     0
100
AcDbFaceRecord
 10
0.0
 20
0.0
 30
0.0
 70
   128
 71
    -3
 72
     2
 73
    -5
  0
VERTEX
  5
3C4
330
3B8
100
AcDbEntity
  8
0
 62
     0
100
AcDbFaceRecord
 10
0.0
 20
0.0
 30
0.0
 70
   128
 71
    -2
 72
    -4
 73
     6
  0
VERTEX
  5
3C5
330
3B8
100
AcDbEntity
  8
0
 62
     0
100
AcDbFaceRecord
 10
0.0
 20
0.0
 30
0.0
 70
   128
 71
    -5
 72
     7
 73
    -3
  0
VERTEX
  5
3C6
330
3B8
100
AcDbEntity
  8
0
 62
     0
100
AcDbFaceRecord
 10
0.0
 20
0.0
 30
0.0
 70
   128
 71
    -7
 72
     5
 73
    -8
  0
VERTEX
  5
3C7
330
3B8
100
AcDbEntity
  8
0
 62
     0
100
AcDbFaceRecord
 10
0.0
 20
0.0
 30
0.0
 70
   128
 71
    -7
 72
     8
 73
    -6
  0
VERTEX
  5
3C8
330
3B8
100
AcDbEntity
  8
0
 62
     0
100
AcDbFaceRecord
 10
0.0
 20
0.0
 30
0.0
 70
   128
 71
    -7
 72
    -6
 73
     4
  0
SEQEND
  5
3C9
330
3B8
100
AcDbEntity
  8
0
 62
     0
  0
LINE
  5
3CA
330
1F
100
AcDbEntity
  8
0
 62
     0
100
AcDbLine
 10
71.25000000000023
 20
0.5000000000020283
 30
106.0
 11
2.000000000000159
 21
0.5000000000019664
 31
106.0
  0
LINE
  5
3CB
330
1F
100
AcDbEntity
  8
0
 62
     0
100
AcDbLine
 10
2.000000000000159
 20
0.5000000000019664
 30
2.0
 11
2.000000000000159
 21
0.5000000000019664
 31
106.0
  0
LINE
  5
3CC
330
1F
100
AcDbEntity
  8
0
 62
     0
100
AcDbLine
 10
71.25000000000023
 20
0.5000000000020283
 30
2.0
 11
2.000000000000159
 21
0.5000000000019664
 31
2.0
  0
LINE
  5
3CD
330
1F
100
AcDbEntity
  8
0
 62
     0
100
AcDbLine
 10
71.25000000000023
 20
0.5000000000020283
 30
2.0
 11
71.25000000000023
 21
0.5000000000020283
 31
106.0
  0
LINE
  5
3CE
330
1F
100
AcDbEntity
  8
0
 62
     0
100
AcDbLine
 10
6.500000000000037
 20
0.5000000000019704
 30
6.50000000000006
 11
6.500000000000037
 21
0.5000000000019704
 31
101.4999999999999
  0
LINE
  5
3CF
330
1F
100
AcDbEntity
  8
0
 62
     0
100
AcDbLine
 10
66.75000000000017
 20
0.5000000000020243
 30
101.5
 11
6.500000000000037
 21
0.5000000000019704
 31
101.4999999999999
  0
LINE
  5
3D0
330
1F
100
AcDbEntity
  8
0
 62
     0
100
AcDbLine
 10
66.75000000000017
 20
0.5000000000020243
 30
6.500000000000072
 11
66.75000000000017
 21
0.5000000000020243
 31
101.5
  0
LINE
  5
3D1
330
1F
100
AcDbEntity
  8
0
 62
     0
100
AcDbLine
 10
6.500000000000037
 20
0.5000000000019704
 30
6.50000000000006
 11
66.75000000000017
 21
0.5000000000020243
 31
6.500000000000072
  0
POLYLINE
  5
3D2
330
1F
100
AcDbEntity
  8
0
 62
     0
100
AcDbPolyFaceMesh
 66
     1
 10
0.0
 20
0.0
 30
0.0
 70
    64
 71
     4
 72
     2
1001
ACAD_MATERIAL_MAPPER
1070
     1
1070
     1
1070
     1
1011
-0.0000000000000138
1021
0.0000000000002152
1031
0.0
1011
-2.540000000000014
1021
0.0000000000002152
1031
0.0
1011
-0.0000000000000138
1021
2.540000000000215
1031
0.0
1011
-0.0000000000000138
1021
0.0000000000002152
1031
1.0
  0
VERTEX
  5
3D3
330
3D2
100
AcDbEntity
  8
0
 62
     0
100
AcDbVertex
100
AcDbPolyFaceMeshVertex
 10
66.75000000000013
 20
9.50000000000206
 30
106.0
 70
   192
  0
VERTEX
  5
3D4
330
3D2
100
AcDbEntity
  8
0
 62
     0
100
AcDbVertex
100
AcDbPolyFaceMeshVertex
 10
2.000000000000159
 20
5.000000000002027
 30
106.0
 70
   192
  0
VERTEX
  5
3D5
330
3D2
100
AcDbEntity
  8
0
 62
     0
100
AcDbVertex
100
AcDbPolyFaceMeshVertex
 10
2.000000000000087
 20
9.499999999999648
 30
106.0
 70
   192
  0
VERTEX
  5
3D6
330
3D2
100
AcDbEntity
  8
0
 62
     0
100
AcDbVertex
100
AcDbPolyFaceMeshVertex
 10
66.75000000000013
 20
5.000000000002001
 30
106.0
 70
   192
  0
VERTEX
  5
3D7
330
3D2
100
AcDbEntity
  8
0
 62
     0
100
AcDbFaceRecord
 10
0.0
 20
0.0
 30
0.0
 70
   128
 71
    -1
 72
     2
 73
     3
  0
VERTEX
  5
3D8
330
3D2
100
AcDbEntity
  8
0
 62
     0
100
AcDbFaceRecord
 10
0.0
 20
0.0
 30
0.0
 70
   128
 71
    -2
 72
     1
 73
     4
  0
SEQEND
  5
3D9
330
3D2
100
AcDbEntity
  8
0
 62
     0
  0
LINE
  5
3DA
330
1F
100
AcDbEntity
  8
0
 62
     0
100
AcDbLine
 10
66.75000000000013
 20
5.000000000002001
 30
106.0
 11
66.75000000000013
 21
9.50000000000206
 31
106.0
  0
LINE
  5
3DB
330
1F
100
AcDbEntity
  8
0
 62
     0
100
AcDbLine
 10
2.000000000000159
 20
5.000000000002027
 30
106.0
 11
66.75000000000013
 21
5.000000000002001
 31
106.0
  0
LINE
  5
3DC
330
1F
100
AcDbEntity
  8
0
 62
     0
100
AcDbLine
 10
2.000000000000087
 20
9.499999999999648
 30
106.0
 11
2.000000000000159
 21
5.000000000002027
 31
106.0
  0
LINE
  5
3DD
330
1F
100
AcDbEntity
  8
0
 62
     0
100
AcDbLine
 10
66.75000000000013
 20
9.50000000000206
 30
106.0
 11
2.000000000000087
 21
9.499999999999648
 31
106.0
  0
POLYLINE
  5
3DE
330
1F
100
AcDbEntity
  8
0
 62
     0
100
AcDbPolyFaceMesh
 66
     1
 10
0.0
 20
0.0
 30
0.0
 70
    64
 71
    10
 72
     8
1001
ACAD_MATERIAL_MAPPER
1070
     1
1070
     1
1070
     1
1011
0.0
1021
0.0
1031
0.0000000000000045
1011
2.540000000000005
1021
0.0
1031
0.0000000000000045
1011
0.0
1021
0.0
1031
2.540000000000005
1011
0.0
1021
1.0
1031
0.0000000000000045
  0
VERTEX
  5
3DF
330
3DE
100
AcDbEntity
  8
0
 62
     0
100
AcDbVertex
100
AcDbPolyFaceMeshVertex
 10
71.25000000000001
 20
5.000000000002005
 30
6.50000000000006
 70
   192
  0
VERTEX
  5
3E0
330
3DE
100
AcDbEntity
  8
0
 62
     0
100
AcDbVertex
100
AcDbPolyFaceMeshVertex
 10
66.75000000000013
 20
5.000000000002001
 30
2.0
 70
   192
  0
VERTEX
  5
3E1
330
3DE
100
AcDbEntity
  8
0
 62
     0
100
AcDbVertex
100
AcDbPolyFaceMeshVertex
 10
71.25000000000023
 20
5.000000000002088
 30
2.0
 70
   192
  0
VERTEX
  5
3E2
330
3DE
100
AcDbEntity
  8
0
 62
     0
100
AcDbVertex
100
AcDbPolyFaceMeshVertex
 10
67.65000000000032
 20
5.000000000002085
 30
5.599999999999918
 70
   192
  0
VERTEX
  5
3E3
330
3DE
100
AcDbEntity
  8
0
 62
     0
100
AcDbVertex
100
AcDbPolyFaceMeshVertex
 10
67.65000000000012
 20
5.000000000002085
 30
102.4000000000001
 70
   192
  0
VERTEX
  5
3E4
330
3DE
100
AcDbEntity
  8
0
 62
     0
100
AcDbVertex
100
AcDbPolyFaceMeshVertex
 10
71.25000000000001
 20
5.000000000002005
 30
101.4999999999999
 70
   192
  0
VERTEX
  5
3E5
330
3DE
100
AcDbEntity
  8
0
 62
     0
100
AcDbVertex
100
AcDbPolyFaceMeshVertex
 10
71.25000000000023
 20
5.000000000002088
 30
106.0
 70
   192
  0
VERTEX
  5
3E6
330
3DE
100
AcDbEntity
  8
0
 62
     0
100
AcDbVertex
100
AcDbPolyFaceMeshVertex
 10
66.75000000000013
 20
5.000000000002043
 30
102.4000000000001
 70
   192
  0
VERTEX
  5
3E7
330
3DE
100
AcDbEntity
  8
0
 62
     0
100
AcDbVertex
100
AcDbPolyFaceMeshVertex
 10
66.75000000000013
 20
5.000000000002001
 30
106.0
 70
   192
  0
VERTEX
  5
3E8
330
3DE
100
AcDbEntity
  8
0
 62
     0
100
AcDbVertex
100
AcDbPolyFaceMeshVertex
 10
66.75000000000013
 20
5.000000000002043
 30
5.599999999999918
 70
   192
  0
VERTEX
  5
3E9
330
3DE
100
AcDbEntity
  8
0
 62
     0
100
AcDbFaceRecord
 10
0.0
 20
0.0
 30
0.0
 70
   128
 71
    -1
 72
     2
 73
     3
  0
VERTEX
  5
3EA
330
3DE
100
AcDbEntity
  8
0
 62
     0
100
AcDbFaceRecord
 10
0.0
 20
0.0
 30
0.0
 70
   128
 71
    -2
 72
    -1
 73
    -4
  0
VERTEX
  5
3EB
330
3DE
100
AcDbEntity
  8
0
 62
     0
100
AcDbFaceRecord
 10
0.0
 20
0.0
 30
0.0
 70
   128
 71
    -4
 72
    -1
 73
     5
  0
VERTEX
  5
3EC
330
3DE
100
AcDbEntity
  8
0
 62
     0
100
AcDbFaceRecord
 10
0.0
 20
0.0
 30
0.0
 70
   128
 71
    -5
 72
     1
 73
    -6
  0
VERTEX
  5
3ED
330
3DE
100
AcDbEntity
  8
0
 62
     0
100
AcDbFaceRecord
 10
0.0
 20
0.0
 30
0.0
 70
   128
 71
    -5
 72
     6
 73
    -7
  0
VERTEX
  5
3EE
330
3DE
100
AcDbEntity
  8
0
 62
     0
100
AcDbFaceRecord
 10
0.0
 20
0.0
 30
0.0
 70
   128
 71
    -5
 72
    -7
 73
     8
  0
VERTEX
  5
3EF
330
3DE
100
AcDbEntity
  8
0
 62
     0
100
AcDbFaceRecord
 10
0.0
 20
0.0
 30
0.0
 70
   128
 71
    -8
 72
     7
 73
     9
  0
VERTEX
  5
3F0
330
3DE
100
AcDbEntity
  8
0
 62
     0
100
AcDbFaceRecord
 10
0.0
 20
0.0
 30
0.0
 70
   128
 71
    10
 72
    -2
 73
     4
  0
SEQEND
  5
3F1
330
3DE
100
AcDbEntity
  8
0
 62
     0
  0
LINE
  5
3F2
330
1F
100
AcDbEntity
  8
0
 62
     0
100
AcDbLine
 10
71.25000000000001
 20
5.000000000002005
 30
6.50000000000006
 11
71.25000000000001
 21
5.000000000002005
 31
101.4999999999999
  0
LINE
  5
3F3
330
1F
100
AcDbEntity
  8
0
 62
     0
100
AcDbLine
 10
71.25000000000001
 20
5.000000000002005
 30
101.4999999999999
 11
71.25000000000023
 21
5.000000000002088
 31
106.0
  0
LINE
  5
3F4
330
1F
100
AcDbEntity
  8
0
 62
     0
100
AcDbLine
 10
66.75000000000013
 20
5.000000000002001
 30
106.0
 11
71.25000000000023
 21
5.000000000002088
 31
106.0
  0
LINE
  5
3F5
330
1F
100
AcDbEntity
  8
0
 62
     0
100
AcDbLine
 10
66.75000000000013
 20
5.000000000002043
 30
102.4000000000001
 11
66.75000000000013
 21
5.000000000002001
 31
106.0
  0
LINE
  5
3F6
330
1F
100
AcDbEntity
  8
0
 62
     0
100
AcDbLine
 10
67.65000000000012
 20
5.000000000002085
 30
102.4000000000001
 11
66.75000000000013
 21
5.000000000002043
 31
102.4000000000001
  0
LINE
  5
3F7
330
1F
100
AcDbEntity
  8
0
 62
     0
100
AcDbLine
 10
67.65000000000032
 20
5.000000000002085
 30
5.599999999999918
 11
67.65000000000012
 21
5.000000000002085
 31
102.4000000000001
  0
LINE
  5
3F8
330
1F
100
AcDbEntity
  8
0
 62
     0
100
AcDbLine
 10
66.75000000000013
 20
5.000000000002043
 30
5.599999999999918
 11
67.65000000000032
 21
5.000000000002085
 31
5.599999999999918
  0
LINE
  5
3F9
330
1F
100
AcDbEntity
  8
0
 62
     0
100
AcDbLine
 10
66.75000000000013
 20
5.000000000002001
 30
2.0
 11
66.75000000000013
 21
5.000000000002043
 31
5.599999999999918
  0
LINE
  5
3FA
330
1F
100
AcDbEntity
  8
0
 62
     0
100
AcDbLine
 10
66.75000000000013
 20
5.000000000002001
 30
2.0
 11
71.25000000000023
 21
5.000000000002088
 31
2.0
  0
LINE
  5
3FB
330
1F
100
AcDbEntity
  8
0
 62
     0
100
AcDbLine
 10
71.25000000000023
 20
5.000000000002088
 30
2.0
 11
71.25000000000001
 21
5.000000000002005
 31
6.50000000000006
  0
POLYLINE
  5
3FC
330
1F
100
AcDbEntity
  8
0
 62
     0
100
AcDbPolyFaceMesh
 66
     1
 10
0.0
 20
0.0
 30
0.0
 70
    64
 71
     4
 72
     2
1001
ACAD_MATERIAL_MAPPER
1070
     1
1070
     1
1070
     1
1011
0.0
1021
0.0000000000000329
1031
-0.0000000000000008
1011
0.0
1021
2.540000000000032
1031
-0.0000000000000008
1011
0.0
1021
0.0000000000000329
1031
2.54
1011
1.0
1021
0.0000000000000329
1031
-0.0000000000000008
  0
VERTEX
  5
3FD
330
3FC
100
AcDbEntity
  8
0
 62
     0
100
AcDbVertex
100
AcDbPolyFaceMeshVertex
 10
2.000000000000087
 20
9.500000000001958
 30
2.0
 70
   192
  0
VERTEX
  5
3FE
330
3FC
100
AcDbEntity
  8
0
 62
     0
100
AcDbVertex
100
AcDbPolyFaceMeshVertex
 10
2.000000000000159
 20
5.000000000002027
 30
106.0
 70
   192
  0
VERTEX
  5
3FF
330
3FC
100
AcDbEntity
  8
0
 62
     0
100
AcDbVertex
100
AcDbPolyFaceMeshVertex
 10
2.000000000000159
 20
5.000000000002027
 30
2.0
 70
   192
  0
VERTEX
  5
400
330
3FC
100
AcDbEntity
  8
0
 62
     0
100
AcDbVertex
100
AcDbPolyFaceMeshVertex
 10
2.000000000000087
 20
9.499999999999648
 30
106.0
 70
   192
  0
VERTEX
  5
401
330
3FC
100
AcDbEntity
  8
0
 62
     0
100
AcDbFaceRecord
 10
0.0
 20
0.0
 30
0.0
 70
   128
 71
    -1
 72
     2
 73
     3
  0
VERTEX
  5
402
330
3FC
100
AcDbEntity
  8
0
 62
     0
100
AcDbFaceRecord
 10
0.0
 20
0.0
 30
0.0
 70
   128
 71
    -2
 72
     1
 73
     4
  0
SEQEND
  5
403
330
3FC
100
AcDbEntity
  8
0
 62
     0
  0
LINE
  5
404
330
1F
100
AcDbEntity
  8
0
 62
     0
100
AcDbLine
 10
2.000000000000087
 20
9.499999999999648
 30
106.0
 11
2.000000000000159
 21
5.000000000002027
 31
106.0
  0
LINE
  5
405
330
1F
100
AcDbEntity
  8
0
 62
     0
100
AcDbLine
 10
2.000000000000159
 20
5.000000000002027
 30
2.0
 11
2.000000000000159
 21
5.000000000002027
 31
106.0
  0
LINE
  5
406
330
1F
100
AcDbEntity
  8
0
 62
     0
100
AcDbLine
 10
2.000000000000087
 20
9.500000000001958
 30
2.0
 11
2.000000000000159
 21
5.000000000002027
 31
2.0
  0
LINE
  5
407
330
1F
100
AcDbEntity
  8
0
 62
     0
100
AcDbLine
 10
2.000000000000087
 20
9.500000000001958
 30
2.0
 11
2.000000000000087
 21
9.499999999999648
 31
106.0
  0
POLYLINE
  5
408
330
1F
100
AcDbEntity
  8
0
 62
     0
100
AcDbPolyFaceMesh
 66
     1
 10
0.0
 20
0.0
 30
0.0
 70
    64
 71
     8
 72
     6
1001
ACAD_MATERIAL_MAPPER
1070
     1
1070
     1
1070
     1
1011
0.0
1021
0.0
1031
0.0
1011
2.54
1021
0.0
1031
0.0
1011
0.0000000000000069
1021
0.0
1031
2.54
1011
0.0
1021
1.0
1031
0.0
  0
VERTEX
  5
409
330
408
100
AcDbEntity
  8
0
 62
     0
100
AcDbVertex
100
AcDbPolyFaceMeshVertex
 10
136.0000000000001
 20
5.000000000002063
 30
2.0
 70
   192
  0
VERTEX
  5
40A
330
408
100
AcDbEntity
  8
0
 62
     0
100
AcDbVertex
100
AcDbPolyFaceMeshVertex
 10
131.5
 20
5.00000000000206
 30
6.500000000000072
 70
   192
  0
VERTEX
  5
40B
330
408
100
AcDbEntity
  8
0
 62
     0
100
AcDbVertex
100
AcDbPolyFaceMeshVertex
 10
71.25000000000023
 20
5.000000000002088
 30
2.0
 70
   192
  0
VERTEX
  5
40C
330
408
100
AcDbEntity
  8
0
 62
     0
100
AcDbVertex
100
AcDbPolyFaceMeshVertex
 10
136.0000000000001
 20
5.000000000002063
 30
106.0
 70
   192
  0
VERTEX
  5
40D
330
408
100
AcDbEntity
  8
0
 62
     0
100
AcDbVertex
100
AcDbPolyFaceMeshVertex
 10
71.25000000000001
 20
5.000000000002005
 30
6.50000000000006
 70
   192
  0
VERTEX
  5
40E
330
408
100
AcDbEntity
  8
0
 62
     0
100
AcDbVertex
100
AcDbPolyFaceMeshVertex
 10
131.5
 20
5.00000000000206
 30
101.5
 70
   192
  0
VERTEX
  5
40F
330
408
100
AcDbEntity
  8
0
 62
     0
100
AcDbVertex
100
AcDbPolyFaceMeshVertex
 10
71.25000000000023
 20
5.000000000002088
 30
106.0
 70
   192
  0
VERTEX
  5
410
330
408
100
AcDbEntity
  8
0
 62
     0
100
AcDbVertex
100
AcDbPolyFaceMeshVertex
 10
71.25000000000001
 20
5.000000000002005
 30
101.4999999999999
 70
   192
  0
VERTEX
  5
411
330
408
100
AcDbEntity
  8
0
 62
     0
100
AcDbFaceRecord
 10
0.0
 20
0.0
 30
0.0
 70
   128
 71
    -1
 72
    -2
 73
     3
  0
VERTEX
  5
412
330
408
100
AcDbEntity
  8
0
 62
     0
100
AcDbFaceRecord
 10
0.0
 20
0.0
 30
0.0
 70
   128
 71
    -2
 72
     1
 73
    -4
  0
VERTEX
  5
413
330
408
100
AcDbEntity
  8
0
 62
     0
100
AcDbFaceRecord
 10
0.0
 20
0.0
 30
0.0
 70
   128
 71
    -3
 72
     2
 73
     5
  0
VERTEX
  5
414
330
408
100
AcDbEntity
  8
0
 62
     0
100
AcDbFaceRecord
 10
0.0
 20
0.0
 30
0.0
 70
   128
 71
    -2
 72
    -4
 73
     6
  0
VERTEX
  5
415
330
408
100
AcDbEntity
  8
0
 62
     0
100
AcDbFaceRecord
 10
0.0
 20
0.0
 30
0.0
 70
   128
 71
    -6
 72
     7
 73
     8
  0
VERTEX
  5
416
330
408
100
AcDbEntity
  8
0
 62
     0
100
AcDbFaceRecord
 10
0.0
 20
0.0
 30
0.0
 70
   128
 71
    -7
 72
    -6
 73
     4
  0
SEQEND
  5
417
330
408
100
AcDbEntity
  8
0
 62
     0
  0
LINE
  5
418
330
1F
100
AcDbEntity
  8
0
 62
     0
100
AcDbLine
 10
136.0000000000001
 20
5.000000000002063
 30
106.0
 11
71.25000000000023
 21
5.000000000002088
 31
106.0
  0
LINE
  5
419
330
1F
100
AcDbEntity
  8
0
 62
     0
100
AcDbLine
 10
71.25000000000001
 20
5.000000000002005
 30
101.4999999999999
 11
71.25000000000023
 21
5.000000000002088
 31
106.0
  0
LINE
  5
41A
330
1F
100
AcDbEntity
  8
0
 62
     0
100
AcDbLine
 10
131.5
 20
5.00000000000206
 30
101.5
 11
71.25000000000001
 21
5.000000000002005
 31
101.4999999999999
  0
LINE
  5
41B
330
1F
100
AcDbEntity
  8
0
 62
     0
100
AcDbLine
 10
131.5
 20
5.00000000000206
 30
6.500000000000072
 11
131.5
 21
5.00000000000206
 31
101.5
  0
LINE
  5
41C
330
1F
100
AcDbEntity
  8
0
 62
     0
100
AcDbLine
 10
71.25000000000001
 20
5.000000000002005
 30
6.50000000000006
 11
131.5
 21
5.00000000000206
 31
6.500000000000072
  0
LINE
  5
41D
330
1F
100
AcDbEntity
  8
0
 62
     0
100
AcDbLine
 10
71.25000000000023
 20
5.000000000002088
 30
2.0
 11
71.25000000000001
 21
5.000000000002005
 31
6.50000000000006
  0
LINE
  5
41E
330
1F
100
AcDbEntity
  8
0
 62
     0
100
AcDbLine
 10
136.0000000000001
 20
5.000000000002063
 30
2.0
 11
71.25000000000023
 21
5.000000000002088
 31
2.0
  0
LINE
  5
41F
330
1F
100
AcDbEntity
  8
0
 62
     0
100
AcDbLine
 10
136.0000000000001
 20
5.000000000002063
 30
2.0
 11
136.0000000000001
 21
5.000000000002063
 31
106.0
  0
POLYLINE
  5
420
330
1F
100
AcDbEntity
  8
0
 62
     0
100
AcDbPolyFaceMesh
 66
     1
 10
0.0
 20
0.0
 30
0.0
 70
    64
 71
     4
 72
     2
1001
ACAD_MATERIAL_MAPPER
1070
     1
1070
     1
1070
     1
1011
-0.0000000000000003
1021
-0.0000000000000013
1031
0.0
1011
2.54
1021
-0.0000000000000012
1031
0.0
1011
-0.0000000000000003
1021
2.539999999999998
1031
0.0
1011
-0.0000000000000003
1021
-0.0000000000000013
1031
1.0
  0
VERTEX
  5
421
330
420
100
AcDbEntity
  8
0
 62
     0
100
AcDbVertex
100
AcDbPolyFaceMeshVertex
 10
2.000000000000159
 20
5.000000000002027
 30
2.0
 70
   192
  0
VERTEX
  5
422
330
420
100
AcDbEntity
  8
0
 62
     0
100
AcDbVertex
100
AcDbPolyFaceMeshVertex
 10
66.75000000000013
 20
9.50000000000206
 30
2.0
 70
   192
  0
VERTEX
  5
423
330
420
100
AcDbEntity
  8
0
 62
     0
100
AcDbVertex
100
AcDbPolyFaceMeshVertex
 10
2.000000000000087
 20
9.500000000001958
 30
2.0
 70
   192
  0
VERTEX
  5
424
330
420
100
AcDbEntity
  8
0
 62
     0
100
AcDbVertex
100
AcDbPolyFaceMeshVertex
 10
66.75000000000013
 20
5.000000000002001
 30
2.0
 70
   192
  0
VERTEX
  5
425
330
420
100
AcDbEntity
  8
0
 62
     0
100
AcDbFaceRecord
 10
0.0
 20
0.0
 30
0.0
 70
   128
 71
    -1
 72
     2
 73
     3
  0
VERTEX
  5
426
330
420
100
AcDbEntity
  8
0
 62
     0
100
AcDbFaceRecord
 10
0.0
 20
0.0
 30
0.0
 70
   128
 71
    -2
 72
     1
 73
     4
  0
SEQEND
  5
427
330
420
100
AcDbEntity
  8
0
 62
     0
  0
LINE
  5
428
330
1F
100
AcDbEntity
  8
0
 62
     0
100
AcDbLine
 10
2.000000000000087
 20
9.500000000001958
 30
2.0
 11
2.000000000000159
 21
5.000000000002027
 31
2.0
  0
LINE
  5
429
330
1F
100
AcDbEntity
  8
0
 62
     0
100
AcDbLine
 10
2.000000000000159
 20
5.000000000002027
 30
2.0
 11
66.75000000000013
 21
5.000000000002001
 31
2.0
  0
LINE
  5
42A
330
1F
100
AcDbEntity
  8
0
 62
     0
100
AcDbLine
 10
66.75000000000013
 20
5.000000000002001
 30
2.0
 11
66.75000000000013
 21
9.50000000000206
 31
2.0
  0
LINE
  5
42B
330
1F
100
AcDbEntity
  8
0
 62
     0
100
AcDbLine
 10
66.75000000000013
 20
9.50000000000206
 30
2.0
 11
2.000000000000087
 21
9.500000000001958
 31
2.0
  0
INSERT
  5
42C
330
1F
100
AcDbEntity
  8
0
 62
     0
100
AcDbBlockReference
  2
RS_OLUM_V2-PL_DWG
 10
137.7499999999999
 20
0.0000000000024357
 30
0.0
 41
9.99999999999999
 42
9.99999999999999
 50
89.99999999999969
  0
INSERT
  5
42D
330
1F
100
AcDbEntity
  8
0
 62
     0
100
AcDbBlockReference
 66
     1
  2
GRUPO_1
 10
70.35000000000004
 20
6.700000000002034
 30
5.599999999999917
  0
ATTRIB
  5
42E
330
42D
100
AcDbEntity
  8
0
100
AcDbText
 10
0.0
 20
0.0
 30
0.0
 40
1.0
  1

100
AcDbAttribute
  2
Skp_GroupInstanceName
 70
     0
  0
SEQEND
  5
42F
330
42D
100
AcDbEntity
  8
0
 62
     0
  0
INSERT
  5
430
330
1F
100
AcDbEntity
  8
0
 62
     0
100
AcDbBlockReference
 66
     1
  2
GRUPO_2
 10
5.850000000000061
 20
2.200000000001944
 30
5.599999999999903
  0
ATTRIB
  5
431
330
430
100
AcDbEntity
  8
0
100
AcDbText
 10
0.0
 20
0.0
 30
0.0
 40
1.0
  1

100
AcDbAttribute
  2
Skp_GroupInstanceName
 70
     0
  0
SEQEND
  5
432
330
430
100
AcDbEntity
  8
0
 62
     0
  0
ENDSEC
  0
SECTION
  2
OBJECTS
  0
DICTIONARY
  5
C
330
0
100
AcDbDictionary
  3
ACAD_GROUP
350
D
  3
ACAD_LAYOUT
350
1A
  3
ACAD_MATERIAL
350
43
  3
ACAD_MLEADERSTYLE
350
6B
  3
ACAD_MLINESTYLE
350
17
  3
ACAD_PLOTSETTINGS
350
19
  3
ACAD_SCALELIST
350
47
  3
ACAD_VISUALSTYLE
350
2A
  3
ACDBHEADERROUNDTRIPXREC
350
433
  3
ACDBVARIABLEDICTIONARY
350
454
  0
DICTIONARY
  5
45B
330
8
100
AcDbDictionary
280
     1
  3
ACAD_XREC_ROUNDTRIP
360
45C
  0
DICTIONARY
  5
D
102
{ACAD_REACTORS
330
C
102
}
330
C
100
AcDbDictionary
  0
DICTIONARY
  5
1A
102
{ACAD_REACTORS
330
C
102
}
330
C
100
AcDbDictionary
  0
DICTIONARY
  5
43
102
{ACAD_REACTORS
330
C
102
}
330
C
100
AcDbDictionary
  3
BYBLOCK
350
45
  3
BYLAYER
350
44
  3
GLOBAL
350
46
  3
MATERIAL10_COPIA
350
BC
  3
_AUTO_
350
B8
  3
_AUTO_1
350
7C
  3
_AUTO_2
350
8B
  0
DICTIONARY
  5
6B
102
{ACAD_REACTORS
330
C
102
}
330
C
100
AcDbDictionary
  3
STANDARD
350
6C
  0
DICTIONARY
  5
17
102
{ACAD_REACTORS
330
C
102
}
330
C
100
AcDbDictionary
  3
STANDARD
350
18
  0
DICTIONARY
  5
19
102
{ACAD_REACTORS
330
C
102
}
330
C
100
AcDbDictionary
  0
DICTIONARY
  5
47
102
{ACAD_REACTORS
330
C
102
}
330
C
100
AcDbDictionary
  3
A0
350
48
  3
A1
350
49
  3
A2
350
4A
  3
A3
350
4B
  3
A4
350
4C
  3
A5
350
4D
  3
A6
350
4E
  3
A7
350
4F
  3
A8
350
50
  3
A9
350
51
  3
B0
350
52
  3
B1
350
53
  3
B2
350
54
  3
B3
350
55
  3
B4
350
56
  3
B5
350
57
  3
B6
350
58
  3
B7
350
59
  3
B8
350
5A
  3
B9
350
5B
  3
C0
350
5C
  3
C1
350
5D
  3
C2
350
5E
  3
C3
350
5F
  3
C4
350
60
  3
C5
350
61
  3
C6
350
62
  3
C7
350
63
  3
C8
350
64
  3
C9
350
65
  3
D0
350
66
  3
D1
350
67
  3
D2
350
68
  0
DICTIONARY
  5
2A
102
{ACAD_REACTORS
330
C
102
}
330
C
100
AcDbDictionary
  3
2DWIREFRAME
350
2F
  3
BASIC
350
32
  3
BRIGHTEN
350
36
  3
COLORCHANGE
350
3A
  3
CONCEPTUAL
350
34
  3
DIM
350
35
  3
EDGECOLOROFF
350
3D
  3
FACEPATTERN
350
39
  3
FLAT
350
2B
  3
FLATWITHEDGES
350
2C
  3
GOURAUD
350
2D
  3
GOURAUDWITHEDGES
350
2E
  3
HIDDEN
350
31
  3
JITTEROFF
350
3B
  3
LINEPATTERN
350
38
  3
OVERHANGOFF
350
3C
  3
REALISTIC
350
33
  3
SHADED
350
42
  3
SHADED_WITH_EDGES
350
41
  3
SHADES_OF_GRAY
350
3E
  3
SKETCHY
350
3F
  3
THICKEN
350
37
  3
WIREFRAME
350
30
  3
X-RAY
350
40
  0
DICTIONARY
  5
433
102
{ACAD_REACTORS
330
C
102
}
330
C
100
AcDbDictionary
  3
CEPSNID
350
43D
  3
CEPSNTYPE
350
43C
  3
DIMSTYLEDATA
350
453
  3
FINGERPRINTGUID
350
43E
  3
HYPERLINKBASE
350
436
  3
INSUNITS
350
43B
  3
LAYOUTDICT
350
438
  3
LWETCUNION
350
43A
  3
PLOTSETDICT
350
439
  3
PSVPSCALE
350
440
  3
PUCSBASE
350
443
  3
PUCSORGBACK
350
449
  3
PUCSORGBOTTOM
350
445
  3
PUCSORGFRONT
350
448
  3
PUCSORGLEFT
350
446
  3
PUCSORGRIGHT
350
447
  3
PUCSORGTOP
350
444
  3
PUCSORTHOREF
350
441
  3
PUCSORTHOVIEW
350
442
  3
STYLESHEET
350
437
  3
TSTACKALIGN
350
434
  3
TSTACKSIZE
350
435
  3
UCSBASE
350
44C
  3
UCSORGBACK
350
452
  3
UCSORGBOTTOM
350
44E
  3
UCSORGFRONT
350
451
  3
UCSORGLEFT
350
44F
  3
UCSORGRIGHT
350
450
  3
UCSORGTOP
350
44D
  3
UCSORTHOREF
350
44A
  3
UCSORTHOVIEW
350
44B
  3
VERSIONGUID
350
43F
  0
DICTIONARY
  5
454
102
{ACAD_REACTORS
330
C
102
}
330
C
100
AcDbDictionary
  3
CANNOSCALE
350
45D
  3
CMLEADERSTYLE
350
456
  3
CTABLESTYLE
350
455
  3
DIMASSOC
350
459
  3
HIDETEXT
350
45A
  3
MSLTSCALE
350
45E
  0
XRECORD
  5
45C
102
{ACAD_REACTORS
330
45B
102
}
330
45B
100
AcDbXrecord
102
VTR_0.000_0.000_1.000_1.000_VISUALSTYLE
340
2F
102
VTR_0.000_0.000_1.000_1.000_GRIDDISPLAY
 70
     3
102
VTR_0.000_0.000_1.000_1.000_GRIDMAJOR
 70
     5
102
VTR_0.000_0.000_1.000_1.000_DEFAULTLIGHTING
280
     1
102
VTR_0.000_0.000_1.000_1.000_DEFAULTLIGHTINGTYPE
 70
     1
102
VTR_0.000_0.000_1.000_1.000_BRIGHTNESS
141
0.0
102
VTR_0.000_0.000_1.000_1.000_CONTRAST
142
0.0
  0
MATERIAL
  5
45
102
{ACAD_REACTORS
330
43
102
}
102
{ACAD_XDICTIONARY
360
461
102
}
330
43
100
AcDbMaterial
  1
BYBLOCK
  0
MATERIAL
  5
44
102
{ACAD_REACTORS
330
43
102
}
102
{ACAD_XDICTIONARY
360
45F
102
}
330
43
100
AcDbMaterial
  1
BYLAYER
  0
MATERIAL
  5
46
102
{ACAD_REACTORS
330
43
102
}
102
{ACAD_XDICTIONARY
360
463
102
}
330
43
100
AcDbMaterial
  1
GLOBAL
  0
MATERIAL
  5
BC
102
{ACAD_REACTORS
330
43
102
}
102
{ACAD_XDICTIONARY
360
46B
102
}
330
43
100
AcDbMaterial
  1
MATERIAL10_COPIA
140
0.5
  0
MATERIAL
  5
B8
102
{ACAD_REACTORS
330
43
102
}
102
{ACAD_XDICTIONARY
360
469
102
}
330
43
100
AcDbMaterial
  1
_AUTO_
  0
MATERIAL
  5
7C
102
{ACAD_REACTORS
330
43
102
}
102
{ACAD_XDICTIONARY
360
465
102
}
330
43
100
AcDbMaterial
  1
_AUTO_1
  0
MATERIAL
  5
8B
102
{ACAD_REACTORS
330
43
102
}
102
{ACAD_XDICTIONARY
360
467
102
}
330
43
100
AcDbMaterial
  1
_AUTO_2
  0
ACAD_PROXY_OBJECT
  5
6C
102
{ACAD_REACTORS
330
6B
102
}
330
6B
100
AcDbProxyObject
 90
      499
 91
      505
 93
      610
310
40901902A4063FBFFFFFE056BD1B81E855B9FC0AD7A3703D0AD73F4214DD185B99185C9900AD7A3703D0AC73F90141901A02B5E8DC0F42B1CFC02B5E8DC0F42B1CFE5764000000000000300FC0
340
14
340
0
340
11
340
0
 94
        0
1001
ACAD_MLEADERVER
1070
     2
  0
MLINESTYLE
  5
18
102
{ACAD_REACTORS
330
17
102
}
330
17
100
AcDbMlineStyle
  2
Standard
 70
     0
  3

 62
   256
 51
90.0
 52
90.0
 71
     2
 49
0.5
 62
   256
  6
BYLAYER
 49
-0.5
 62
   256
  6
BYLAYER
  0
ACAD_PROXY_OBJECT
  5
48
102
{ACAD_REACTORS
330
47
102
}
330
47
100
AcDbProxyObject
 90
      499
 91
      503
 93
       41
310
903313A31580
  0
ACAD_PROXY_OBJECT
  5
49
102
{ACAD_REACTORS
330
47
102
}
330
47
100
AcDbProxyObject
 90
      499
 91
      503
 93
      105
310
903313A324000000000000004000
  0
ACAD_PROXY_OBJECT
  5
4A
102
{ACAD_REACTORS
330
47
102
}
330
47
100
AcDbProxyObject
 90
      499
 91
      503
 93
      105
310
903313A344000000000000104000
  0
ACAD_PROXY_OBJECT
  5
4B
102
{ACAD_REACTORS
330
47
102
}
330
47
100
AcDbProxyObject
 90
      499
 91
      503
 93
      105
310
903313A354000000000000144000
  0
ACAD_PROXY_OBJECT
  5
4C
102
{ACAD_REACTORS
330
47
102
}
330
47
100
AcDbProxyObject
 90
      499
 91
      503
 93
      105
310
903313A384000000000000204000
  0
ACAD_PROXY_OBJECT
  5
4D
102
{ACAD_REACTORS
330
47
102
}
330
47
100
AcDbProxyObject
 90
      499
 91
      503
 93
      113
310
904313A31304000000000000244000
  0
ACAD_PROXY_OBJECT
  5
4E
102
{ACAD_REACTORS
330
47
102
}
330
47
100
AcDbProxyObject
 90
      499
 91
      503
 93
      113
310
904313A31364000000000000304000
  0
ACAD_PROXY_OBJECT
  5
4F
102
{ACAD_REACTORS
330
47
102
}
330
47
100
AcDbProxyObject
 90
      499
 91
      503
 93
      113
310
904313A32304000000000000344000
  0
ACAD_PROXY_OBJECT
  5
50
102
{ACAD_REACTORS
330
47
102
}
330
47
100
AcDbProxyObject
 90
      499
 91
      503
 93
      113
310
904313A333040000000000003E4000
  0
ACAD_PROXY_OBJECT
  5
51
102
{ACAD_REACTORS
330
47
102
}
330
47
100
AcDbProxyObject
 90
      499
 91
      503
 93
      113
310
904313A34304000000000000444000
  0
ACAD_PROXY_OBJECT
  5
52
102
{ACAD_REACTORS
330
47
102
}
330
47
100
AcDbProxyObject
 90
      499
 91
      503
 93
      113
310
904313A35304000000000000494000
  0
ACAD_PROXY_OBJECT
  5
53
102
{ACAD_REACTORS
330
47
102
}
330
47
100
AcDbProxyObject
 90
      499
 91
      503
 93
      121
310
905313A3130304000000000000594000
  0
ACAD_PROXY_OBJECT
  5
54
102
{ACAD_REACTORS
330
47
102
}
330
47
100
AcDbProxyObject
 90
      499
 91
      503
 93
      105
310
903323A310000000000000010100
  0
ACAD_PROXY_OBJECT
  5
55
102
{ACAD_REACTORS
330
47
102
}
330
47
100
AcDbProxyObject
 90
      499
 91
      503
 93
      105
310
903343A310000000000000410100
  0
ACAD_PROXY_OBJECT
  5
56
102
{ACAD_REACTORS
330
47
102
}
330
47
100
AcDbProxyObject
 90
      499
 91
      503
 93
      105
310
903383A310000000000000810100
  0
ACAD_PROXY_OBJECT
  5
57
102
{ACAD_REACTORS
330
47
102
}
330
47
100
AcDbProxyObject
 90
      499
 91
      503
 93
      113
310
90431303A310000000000000910100
  0
ACAD_PROXY_OBJECT
  5
58
102
{ACAD_REACTORS
330
47
102
}
330
47
100
AcDbProxyObject
 90
      499
 91
      503
 93
      121
310
9053130303A310000000000001650100
  0
ACAD_PROXY_OBJECT
  5
59
102
{ACAD_REACTORS
330
47
102
}
330
47
100
AcDbProxyObject
 90
      499
 91
      503
 93
      257
310
90E312F31323822203D2031272D3022000000000000200FC000000000000284000
  0
ACAD_PROXY_OBJECT
  5
5A
102
{ACAD_REACTORS
330
47
102
}
330
47
100
AcDbProxyObject
 90
      499
 91
      503
 93
      249
310
90D312F363422203D2031272D3022000000000000240FC000000000000284000
  0
ACAD_PROXY_OBJECT
  5
5B
102
{ACAD_REACTORS
330
47
102
}
330
47
100
AcDbProxyObject
 90
      499
 91
      503
 93
      249
310
90D312F333222203D2031272D3022000000000000280FC000000000000284000
  0
ACAD_PROXY_OBJECT
  5
5C
102
{ACAD_REACTORS
330
47
102
}
330
47
100
AcDbProxyObject
 90
      499
 91
      503
 93
      249
310
90D312F313622203D2031272D30220000000000002C0FC000000000000284000
  0
ACAD_PROXY_OBJECT
  5
5D
102
{ACAD_REACTORS
330
47
102
}
330
47
100
AcDbProxyObject
 90
      499
 91
      503
 93
      249
310
90D332F333222203D2031272D30220000000000002E0FC000000000000284000
  0
ACAD_PROXY_OBJECT
  5
5E
102
{ACAD_REACTORS
330
47
102
}
330
47
100
AcDbProxyObject
 90
      499
 91
      503
 93
      241
310
90C312F3822203D2031272D3022000000000000300FC000000000000284000
  0
ACAD_PROXY_OBJECT
  5
5F
102
{ACAD_REACTORS
330
47
102
}
330
47
100
AcDbProxyObject
 90
      499
 91
      503
 93
      249
310
90D332F313622203D2031272D3022000000000000320FC000000000000284000
  0
ACAD_PROXY_OBJECT
  5
60
102
{ACAD_REACTORS
330
47
102
}
330
47
100
AcDbProxyObject
 90
      499
 91
      503
 93
      241
310
90C312F3422203D2031272D3022000000000000340FC000000000000284000
  0
ACAD_PROXY_OBJECT
  5
61
102
{ACAD_REACTORS
330
47
102
}
330
47
100
AcDbProxyObject
 90
      499
 91
      503
 93
      241
310
90C332F3822203D2031272D3022000000000000360FC000000000000284000
  0
ACAD_PROXY_OBJECT
  5
62
102
{ACAD_REACTORS
330
47
102
}
330
47
100
AcDbProxyObject
 90
      499
 91
      503
 93
      241
310
90C312F3222203D2031272D3022000000000000380FC000000000000284000
  0
ACAD_PROXY_OBJECT
  5
63
102
{ACAD_REACTORS
330
47
102
}
330
47
100
AcDbProxyObject
 90
      499
 91
      503
 93
      241
310
90C332F3422203D2031272D30220000000000003A0FC000000000000284000
  0
ACAD_PROXY_OBJECT
  5
64
102
{ACAD_REACTORS
330
47
102
}
330
47
100
AcDbProxyObject
 90
      499
 91
      503
 93
      161
310
90A3122203D2031272D30224000000000000284000
  0
ACAD_PROXY_OBJECT
  5
65
102
{ACAD_REACTORS
330
47
102
}
330
47
100
AcDbProxyObject
 90
      499
 91
      503
 93
      257
310
90E312D312F3222203D2031272D30220000000000003E0FC000000000000284000
  0
ACAD_PROXY_OBJECT
  5
66
102
{ACAD_REACTORS
330
47
102
}
330
47
100
AcDbProxyObject
 90
      499
 91
      503
 93
      225
310
90A3322203D2031272D302200000000000002100000000000000284000
  0
ACAD_PROXY_OBJECT
  5
67
102
{ACAD_REACTORS
330
47
102
}
330
47
100
AcDbProxyObject
 90
      499
 91
      503
 93
      225
310
90A3622203D2031272D302200000000000006100000000000000284000
  0
ACAD_PROXY_OBJECT
  5
68
102
{ACAD_REACTORS
330
47
102
}
330
47
100
AcDbProxyObject
 90
      499
 91
      503
 93
      249
310
90D31272D3022203D2031272D30220000000000000A100000000000000284000
  0
ACAD_PROXY_OBJECT
  5
2F
102
{ACAD_REACTORS
330
2A
102
}
330
2A
100
AcDbProxyObject
 90
      499
 91
      501
 93
      436
310
42CC9915DA5C99599C985B595049028333333333333E33F0000000000000F90107901411070040501600405405064090741402480A0340
1001
ACAD
1000
AcDbSavedByObjectVersion
1070
     0
  0
ACAD_PROXY_OBJECT
  5
32
102
{ACAD_REACTORS
330
2A
102
}
330
2A
100
AcDbProxyObject
 90
      499
 91
      501
 93
      388
310
4150985CDA58D07406404333333333333E33F0000000000000F90107A41107004050150841D405064090741402480A0350
1001
ACAD
1000
AcDbSavedByObjectVersion
1070
     0
  0
ACAD_PROXY_OBJECT
  5
36
102
{ACAD_REACTORS
330
2A
102
}
330
2A
100
AcDbProxyObject
 90
      499
 91
      501
 93
      428
310
42109C9A59DA1D195B90C409028333333333333E33F0000000000000F9010790141107004050150841D405064090741402480A029950
1001
ACAD
1000
AcDbSavedByObjectVersion
1070
     0
  0
ACAD_PROXY_OBJECT
  5
3A
102
{ACAD_REACTORS
330
2A
102
}
330
2A
100
AcDbProxyObject
 90
      499
 91
      501
 93
      452
310
42D0DBDB1BDC90DA185B99D95104090240C333333333333E33F0000000000000F90108901411070040501508421405064090741402480A0350
1001
ACAD
1000
AcDbSavedByObjectVersion
1070
     0
  0
ACAD_PROXY_OBJECT
  5
34
102
{ACAD_REACTORS
330
2A
102
}
330
2A
100
AcDbProxyObject
 90
      499
 91
      501
 93
      500
310
4290DBDB98D95C1D1D585B10940D028333333333333E33F0000000000000F90107902409070040501000000000018199010841D405064090740C02480A0340
1001
ACAD
1000
AcDbSavedByObjectVersion
1070
     0
  0
ACAD_PROXY_OBJECT
  5
35
102
{ACAD_REACTORS
330
2A
102
}
330
2A
100
AcDbProxyObject
 90
      499
 91
      501
 93
      412
310
40D11A5B50B409028333333333333E33F0000000000000F9010790141107004050150841D405064090741402480A02677FFFFFD0
1001
ACAD
1000
AcDbSavedByObjectVersion
1070
     0
  0
ACAD_PROXY_OBJECT
  5
3D
102
{ACAD_REACTORS
330
2A
102
}
330
2A
100
AcDbProxyObject
 90
      499
 91
      501
 93
      452
310
43115919D950DBDB1BDC93D999916409028333333333333E33F0000000000000F9010790141107004050150841D405064090741402480A0350
1001
ACAD
1000
AcDbSavedByObjectVersion
1070
     0
  0
ACAD_PROXY_OBJECT
  5
39
102
{ACAD_REACTORS
330
2A
102
}
330
2A
100
AcDbProxyObject
 90
      499
 91
      501
 93
      444
310
42D19858D95C185D1D195C9B90F409028333333333333E33F0000000000000F9010790141107004050150841D405064090741402480A0350
1001
ACAD
1000
AcDbSavedByObjectVersion
1070
     0
  0
ACAD_PROXY_OBJECT
  5
2B
102
{ACAD_REACTORS
330
2A
102
}
330
2A
100
AcDbProxyObject
 90
      499
 91
      501
 93
      380
310
41119B185D240901404333333333333E33F0000000000000F9010740A907004050150841D405064090741402480A1B50
1001
ACAD
1000
AcDbSavedByObjectVersion
1070
     0
  0
ACAD_PROXY_OBJECT
  5
2C
102
{ACAD_REACTORS
330
2A
102
}
330
2A
100
AcDbProxyObject
 90
      499
 91
      501
 93
      468
310
43519B185D15DA5D1A115919D95CD0140901404333333333333E33F0000000000000F90107409019070040501600405405064090741402480A1B50
1001
ACAD
1000
AcDbSavedByObjectVersion
1070
     0
  0
ACAD_PROXY_OBJECT
  5
2D
102
{ACAD_REACTORS
330
2A
102
}
330
2A
100
AcDbProxyObject
 90
      499
 91
      501
 93
      404
310
41D1DBDD5C985D5910240902404333333333333E33F0000000000000F9010740A9070040501641D405064090741402480A1B50
1001
ACAD
1000
AcDbSavedByObjectVersion
1070
     0
  0
ACAD_PROXY_OBJECT
  5
2E
102
{ACAD_REACTORS
330
2A
102
}
330
2A
100
AcDbProxyObject
 90
      499
 91
      501
 93
      492
310
4411DBDD5C985D5915DA5D1A115919D95CD0340902404333333333333E33F0000000000000F90107409019070040501600405405064090741402480A1B50
1001
ACAD
1000
AcDbSavedByObjectVersion
1070
     0
  0
ACAD_PROXY_OBJECT
  5
31
102
{ACAD_REACTORS
330
2A
102
}
330
2A
100
AcDbProxyObject
 90
      499
 91
      501
 93
      476
310
41921A5919195B90640502408333333333333E33F0000000000000F901079024090700405020000000000001110200405405064090740C02480A0340
1001
ACAD
1000
AcDbSavedByObjectVersion
1070
     0
  0
ACAD_PROXY_OBJECT
  5
3B
102
{ACAD_REACTORS
330
2A
102
}
330
2A
100
AcDbProxyObject
 90
      499
 91
      501
 93
      428
310
42529A5D1D195C93D999914409028333333333333E33F0000000000000F9010790141107004050150A41D405064090741402480A0350
1001
ACAD
1000
AcDbSavedByObjectVersion
1070
     0
  0
ACAD_PROXY_OBJECT
  5
38
102
{ACAD_REACTORS
330
2A
102
}
330
2A
100
AcDbProxyObject
 90
      499
 91
      501
 93
      444
310
42D31A5B995C185D1D195C9B90E409028333333333333E33F0000000000000F9010790141107004050750841D405064090741402483A0350
1001
ACAD
1000
AcDbSavedByObjectVersion
1070
     0
  0
ACAD_PROXY_OBJECT
  5
3C
102
{ACAD_REACTORS
330
2A
102
}
330
2A
100
AcDbProxyObject
 90
      499
 91
      501
 93
      444
310
42D3DD995C9A185B99D3D999915409028333333333333E33F0000000000000F9010790141107004050150941D405064090741402480A0350
1001
ACAD
1000
AcDbSavedByObjectVersion
1070
     0
  0
ACAD_PROXY_OBJECT
  5
33
102
{ACAD_REACTORS
330
2A
102
}
330
2A
100
AcDbProxyObject
 90
      499
 91
      501
 93
      428
310
425499585B1A5CDD1A58D08409038333333333333E33F0000000000000F9010740A907004050150800405405064090740C02480A1B40
1001
ACAD
1000
AcDbSavedByObjectVersion
1070
     0
  0
ACAD_PROXY_OBJECT
  5
42
102
{ACAD_REACTORS
330
2A
102
}
330
2A
100
AcDbProxyObject
 90
      499
 91
      501
 93
      420
310
4194DA1859195911B40902404333333333333E33F0000000000000F9010740A41107004050150800405405064090840C02480A0B40
1001
ACAD
1000
AcDbSavedByObjectVersion
1070
     0
  0
ACAD_PROXY_OBJECT
  5
41
102
{ACAD_REACTORS
330
2A
102
}
330
2A
100
AcDbProxyObject
 90
      499
 91
      501
 93
      516
310
4454DA18591959081DDA5D1A08195919D95CD1A40902404333333333333E33F0000000000000F901074090142907004050250800405405064090740C02480A0B40
1001
ACAD
1000
AcDbSavedByObjectVersion
1070
     0
  0
ACAD_PROXY_OBJECT
  5
3E
102
{ACAD_REACTORS
330
2A
102
}
330
2A
100
AcDbProxyObject
 90
      499
 91
      501
 93
      532
310
4394DA1859195CC81BD98811DC985E5174090240C333333333333E33F0000000000000F901079024090741D01000000000000111010841D405064090740C02480A0340
1001
ACAD
1000
AcDbSavedByObjectVersion
1070
     0
  0
ACAD_PROXY_OBJECT
  5
3F
102
{ACAD_REACTORS
330
2A
102
}
330
2A
100
AcDbProxyObject
 90
      499
 91
      501
 93
      476
310
41D4DAD95D18DA1E51840502408333333333333E33F0000000000000F901079024090741D01000000000000111010B41D405064090741802480A0340
1001
ACAD
1000
AcDbSavedByObjectVersion
1070
     0
  0
ACAD_PROXY_OBJECT
  5
37
102
{ACAD_REACTORS
330
2A
102
}
330
2A
100
AcDbProxyObject
 90
      499
 91
      501
 93
      412
310
41D51A1A58DAD95B90D409028333333333333E33F0000000000000F9010790141107004050150C41D405064090741402480A0350
1001
ACAD
1000
AcDbSavedByObjectVersion
1070
     0
  0
ACAD_PROXY_OBJECT
  5
30
102
{ACAD_REACTORS
330
2A
102
}
330
2A
100
AcDbProxyObject
 90
      499
 91
      501
 93
      420
310
4255DA5C99599C985B595059028333333333333E33F0000000000000F90107901411070040501600405405064090740C02480A0340
1001
ACAD
1000
AcDbSavedByObjectVersion
1070
     0
  0
ACAD_PROXY_OBJECT
  5
40
102
{ACAD_REACTORS
330
2A
102
}
330
2A
100
AcDbProxyObject
 90
      499
 91
      501
 93
      404
310
41560B54985E51940902404000000000000E03F0000000000000F9010740501907004050150841D405064090740C02480A1B40
1001
ACAD
1000
AcDbSavedByObjectVersion
1070
     0
  0
XRECORD
  5
43D
102
{ACAD_REACTORS
330
433
102
}
330
433
100
AcDbXrecord
340
0
  0
XRECORD
  5
43C
102
{ACAD_REACTORS
330
433
102
}
330
433
100
AcDbXrecord
 90
        0
  0
XRECORD
  5
453
102
{ACAD_REACTORS
330
433
102
}
330
433
100
AcDbXrecord
1000
DSTYLE
1002
{
1070
   171
 70
     2
1070
   143
 40
25.4
1070
   274
 70
     2
1070
    41
 40
0.18
1070
   141
 40
0.09
1070
   271
 70
     4
1070
    43
 40
0.38
1070
   278
 70
    46
1070
    44
 40
0.18
1070
    42
 40
0.0625
1070
   147
 40
0.09
1070
    77
 70
     0
1070
   272
 70
     4
1070
    73
 70
     1
1070
   172
 70
     0
1070
    74
 70
     1
1070
   283
 70
     1
1070
   340
340
11
1070
   140
 40
0.18
1070
   284
 70
     0
1070
    78
 70
     0
1002
}
  0
XRECORD
  5
43E
102
{ACAD_REACTORS
330
433
102
}
330
433
100
AcDbXrecord
  1
{04fe4e7a-a5e6-e54b-a096-247f9150a03b}
  0
XRECORD
  5
436
102
{ACAD_REACTORS
330
433
102
}
330
433
100
AcDbXrecord
  1

  0
XRECORD
  5
43B
102
{ACAD_REACTORS
330
433
102
}
330
433
100
AcDbXrecord
 90
        5
  0
XRECORD
  5
438
102
{ACAD_REACTORS
330
433
102
}
330
433
100
AcDbXrecord
340
1A
  0
XRECORD
  5
43A
102
{ACAD_REACTORS
330
433
102
}
330
433
100
AcDbXrecord
 90
    10781
  0
XRECORD
  5
439
102
{ACAD_REACTORS
330
433
102
}
330
433
100
AcDbXrecord
340
19
  0
XRECORD
  5
440
102
{ACAD_REACTORS
330
433
102
}
330
433
100
AcDbXrecord
 40
0.0
  0
XRECORD
  5
443
102
{ACAD_REACTORS
330
433
102
}
330
433
100
AcDbXrecord
340
0
  0
XRECORD
  5
449
102
{ACAD_REACTORS
330
433
102
}
330
433
100
AcDbXrecord
 10
0.0
 20
0.0
 30
0.0
  0
XRECORD
  5
445
102
{ACAD_REACTORS
330
433
102
}
330
433
100
AcDbXrecord
 10
0.0
 20
0.0
 30
0.0
  0
XRECORD
  5
448
102
{ACAD_REACTORS
330
433
102
}
330
433
100
AcDbXrecord
 10
0.0
 20
0.0
 30
0.0
  0
XRECORD
  5
446
102
{ACAD_REACTORS
330
433
102
}
330
433
100
AcDbXrecord
 10
0.0
 20
0.0
 30
0.0
  0
XRECORD
  5
447
102
{ACAD_REACTORS
330
433
102
}
330
433
100
AcDbXrecord
 10
0.0
 20
0.0
 30
0.0
  0
XRECORD
  5
444
102
{ACAD_REACTORS
330
433
102
}
330
433
100
AcDbXrecord
 10
0.0
 20
0.0
 30
0.0
  0
XRECORD
  5
441
102
{ACAD_REACTORS
330
433
102
}
330
433
100
AcDbXrecord
340
0
  0
XRECORD
  5
442
102
{ACAD_REACTORS
330
433
102
}
330
433
100
AcDbXrecord
 70
     0
  0
XRECORD
  5
437
102
{ACAD_REACTORS
330
433
102
}
330
433
100
AcDbXrecord
  1

  0
XRECORD
  5
434
102
{ACAD_REACTORS
330
433
102
}
330
433
100
AcDbXrecord
 90
        1
  0
XRECORD
  5
435
102
{ACAD_REACTORS
330
433
102
}
330
433
100
AcDbXrecord
 90
       70
  0
XRECORD
  5
44C
102
{ACAD_REACTORS
330
433
102
}
330
433
100
AcDbXrecord
340
0
  0
XRECORD
  5
452
102
{ACAD_REACTORS
330
433
102
}
330
433
100
AcDbXrecord
 10
0.0
 20
0.0
 30
0.0
  0
XRECORD
  5
44E
102
{ACAD_REACTORS
330
433
102
}
330
433
100
AcDbXrecord
 10
0.0
 20
0.0
 30
0.0
  0
XRECORD
  5
451
102
{ACAD_REACTORS
330
433
102
}
330
433
100
AcDbXrecord
 10
0.0
 20
0.0
 30
0.0
  0
XRECORD
  5
44F
102
{ACAD_REACTORS
330
433
102
}
330
433
100
AcDbXrecord
 10
0.0
 20
0.0
 30
0.0
  0
XRECORD
  5
450
102
{ACAD_REACTORS
330
433
102
}
330
433
100
AcDbXrecord
 10
0.0
 20
0.0
 30
0.0
  0
XRECORD
  5
44D
102
{ACAD_REACTORS
330
433
102
}
330
433
100
AcDbXrecord
 10
0.0
 20
0.0
 30
0.0
  0
XRECORD
  5
44A
102
{ACAD_REACTORS
330
433
102
}
330
433
100
AcDbXrecord
340
0
  0
XRECORD
  5
44B
102
{ACAD_REACTORS
330
433
102
}
330
433
100
AcDbXrecord
 70
     0
  0
XRECORD
  5
43F
102
{ACAD_REACTORS
330
433
102
}
330
433
100
AcDbXrecord
  1
{FAEB1C32-E019-11D5-929B-00C0DF256EC4}
  0
DICTIONARYVAR
  5
45D
102
{ACAD_REACTORS
330
454
102
}
330
454
100
DictionaryVariables
280
     0
  1
1:1
  0
DICTIONARYVAR
  5
456
102
{ACAD_REACTORS
330
454
102
}
330
454
100
DictionaryVariables
280
     0
  1
Standard
  0
DICTIONARYVAR
  5
455
102
{ACAD_REACTORS
330
454
102
}
330
454
100
DictionaryVariables
280
     0
  1
Standard
  0
DICTIONARYVAR
  5
459
102
{ACAD_REACTORS
330
454
102
}
330
454
100
DictionaryVariables
280
     0
  1
2
  0
DICTIONARYVAR
  5
45A
102
{ACAD_REACTORS
330
454
102
}
330
454
100
DictionaryVariables
280
     0
  1
1
  0
DICTIONARYVAR
  5
45E
102
{ACAD_REACTORS
330
454
102
}
330
454
100
DictionaryVariables
280
     0
  1
1
  0
DICTIONARY
  5
461
330
45
100
AcDbDictionary
280
     1
  3
ACAD_XREC_ROUNDTRIP
360
462
  0
DICTIONARY
  5
45F
330
44
100
AcDbDictionary
280
     1
  3
ACAD_XREC_ROUNDTRIP
360
460
  0
DICTIONARY
  5
463
330
46
100
AcDbDictionary
280
     1
  3
ACAD_XREC_ROUNDTRIP
360
464
  0
DICTIONARY
  5
46B
330
BC
100
AcDbDictionary
280
     1
  3
ACAD_XREC_ROUNDTRIP
360
46C
  0
DICTIONARY
  5
469
330
B8
100
AcDbDictionary
280
     1
  3
ACAD_XREC_ROUNDTRIP
360
46A
  0
DICTIONARY
  5
465
330
7C
100
AcDbDictionary
280
     1
  3
ACAD_XREC_ROUNDTRIP
360
466
  0
DICTIONARY
  5
467
330
8B
100
AcDbDictionary
280
     1
  3
ACAD_XREC_ROUNDTRIP
360
468
  0
XRECORD
  5
462
102
{ACAD_REACTORS
330
461
102
}
330
461
100
AcDbXrecord
102
MATERIAL
148
0.0
149
0.0
149
0.0
 93
        0
 94
      127
282
     0
 72
     1
 77
     1
171
     1
175
     1
179
     1
273
     0
  0
XRECORD
  5
460
102
{ACAD_REACTORS
330
45F
102
}
330
45F
100
AcDbXrecord
102
MATERIAL
148
0.0
149
0.0
149
0.0
 93
        0
 94
      127
282
     0
 72
     1
 77
     1
171
     1
175
     1
179
     1
273
     0
  0
XRECORD
  5
464
102
{ACAD_REACTORS
330
463
102
}
330
463
100
AcDbXrecord
102
MATERIAL
148
0.0
149
0.0
149
0.0
 93
        0
 94
      127
282
     0
 72
     1
 77
     1
171
     1
175
     1
179
     1
273
     0
  0
XRECORD
  5
46C
102
{ACAD_REACTORS
330
46B
102
}
330
46B
100
AcDbXrecord
102
MATERIAL
148
0.0
149
0.0
149
0.0
 93
        0
 94
        8
282
     0
 72
     1
 77
     1
171
     1
175
     1
179
     1
273
     0
  0
XRECORD
  5
46A
102
{ACAD_REACTORS
330
469
102
}
330
469
100
AcDbXrecord
102
MATERIAL
148
0.0
149
0.0
149
0.0
 93
        0
 94
        0
282
     0
 72
     1
 77
     1
171
     1
175
     1
179
     1
273
     0
  0
XRECORD
  5
466
102
{ACAD_REACTORS
330
465
102
}
330
465
100
AcDbXrecord
102
MATERIAL
148
0.0
149
0.0
149
0.0
 93
        0
 94
        0
282
     0
 72
     1
 77
     1
171
     1
175
     1
179
     1
273
     0
  0
XRECORD
  5
468
102
{ACAD_REACTORS
330
467
102
}
330
467
100
AcDbXrecord
102
MATERIAL
148
0.0
149
0.0
149
0.0
 93
        0
 94
        0
282
     0
 72
     1
 77
     1
171
     1
175
     1
179
     1
273
     0
  0
ENDSEC
  0
EOF
