  0
SECTION
  2
HEADER
  9
$ACADVER
  1
AC1014
  9
$ACADMAINTVER
 70
     9
  9
$DWGCODEPAGE
  3
MAC-ROMAN
  9
$INSBASE
 10
0.0
 20
0.0
 30
0.0
  9
$EXTMIN
 10
1.000000000000000E+20
 20
1.000000000000000E+20
 30
1.000000000000000E+20
  9
$EXTMAX
 10
-1.000000000000000E+20
 20
-1.000000000000000E+20
 30
-1.000000000000000E+20
  9
$LIMMIN
 10
0.0
 20
0.0
  9
$LIMMAX
 10
12.0
 20
9.0
  9
$ORTHOMODE
 70
     0
  9
$REGENMODE
 70
     1
  9
$FILLMODE
 70
     1
  9
$QTEXTMODE
 70
     0
  9
$MIRRTEXT
 70
     1
  9
$DRAGMODE
 70
     2
  9
$LTSCALE
 40
2.54
  9
$OSMODE
 70
    37
  9
$ATTMODE
 70
     1
  9
$TEXTSIZE
 40
0.2
  9
$TRACEWID
 40
0.05
  9
$TEXTSTYLE
  7
STANDARD
  9
$CLAYER
  8
0
  9
$CELTYPE
  6
BYLAYER
  9
$CECOLOR
 62
   256
  9
$CELTSCALE
 40
1.0
  9
$DELOBJ
 70
     1
  9
$DISPSILH
 70
     0
  9
$DIMSCALE
 40
1.0
  9
$DIMASZ
 40
0.18
  9
$DIMEXO
 40
0.0625
  9
$DIMDLI
 40
0.38
  9
$DIMRND
 40
0.0
  9
$DIMDLE
 40
0.0
  9
$DIMEXE
 40
0.18
  9
$DIMTP
 40
0.0
  9
$DIMTM
 40
0.0
  9
$DIMTXT
 40
0.18
  9
$DIMCEN
 40
0.09
  9
$DIMTSZ
 40
0.0
  9
$DIMTOL
 70
     0
  9
$DIMLIM
 70
     0
  9
$DIMTIH
 70
     1
  9
$DIMTOH
 70
     1
  9
$DIMSE1
 70
     0
  9
$DIMSE2
 70
     0
  9
$DIMTAD
 70
     0
  9
$DIMZIN
 70
     0
  9
$DIMBLK
  1

  9
$DIMASO
 70
     1
  9
$DIMSHO
 70
     1
  9
$DIMPOST
  1

  9
$DIMAPOST
  1

  9
$DIMALT
 70
     0
  9
$DIMALTD
 70
     2
  9
$DIMALTF
 40
25.4
  9
$DIMLFAC
 40
1.0
  9
$DIMTOFL
 70
     0
  9
$DIMTVP
 40
0.0
  9
$DIMTIX
 70
     0
  9
$DIMSOXD
 70
     0
  9
$DIMSAH
 70
     0
  9
$DIMBLK1
  1

  9
$DIMBLK2
  1

  9
$DIMSTYLE
  2
STANDARD
  9
$DIMCLRD
 70
     0
  9
$DIMCLRE
 70
     0
  9
$DIMCLRT
 70
     0
  9
$DIMTFAC
 40
1.0
  9
$DIMGAP
 40
0.09
  9
$DIMJUST
 70
     0
  9
$DIMSD1
 70
     0
  9
$DIMSD2
 70
     0
  9
$DIMTOLJ
 70
     1
  9
$DIMTZIN
 70
     0
  9
$DIMALTZ
 70
     0
  9
$DIMALTTZ
 70
     0
  9
$DIMFIT
 70
     3
  9
$DIMUPT
 70
     0
  9
$DIMUNIT
 70
     2
  9
$DIMDEC
 70
     4
  9
$DIMTDEC
 70
     4
  9
$DIMALTU
 70
     2
  9
$DIMALTTD
 70
     2
  9
$DIMTXSTY
  7
STANDARD
  9
$DIMAUNIT
 70
     0
  9
$LUNITS
 70
     2
  9
$LUPREC
 70
     4
  9
$SKETCHINC
 40
0.1
  9
$FILLETRAD
 40
0.5
  9
$AUNITS
 70
     0
  9
$AUPREC
 70
     0
  9
$MENU
  1
.
  9
$ELEVATION
 40
0.0
  9
$PELEVATION
 40
0.0
  9
$THICKNESS
 40
0.0
  9
$LIMCHECK
 70
     0
  9
$CHAMFERA
 40
0.0
  9
$CHAMFERB
 40
0.0
  9
$CHAMFERC
 40
0.0
  9
$CHAMFERD
 40
0.0
  9
$SKPOLY
 70
     0
  9
$TDCREATE
 40
2460074.547292627
  9
$TDUPDATE
 40
2460074.547293044
  9
$TDINDWG
 40
0.0000000116
  9
$TDUSRTIMER
 40
0.0000000116
  9
$USRTIMER
 70
     1
  9
$ANGBASE
 50
0.0
  9
$ANGDIR
 70
     0
  9
$PDMODE
 70
     0
  9
$PDSIZE
 40
0.0
  9
$PLINEWID
 40
0.0
  9
$COORDS
 70
     1
  9
$SPLFRAME
 70
     0
  9
$SPLINETYPE
 70
     6
  9
$SPLINESEGS
 70
     8
  9
$ATTDIA
 70
     0
  9
$ATTREQ
 70
     1
  9
$HANDLING
 70
     1
  9
$HANDSEED
  5
5A2
  9
$SURFTAB1
 70
     6
  9
$SURFTAB2
 70
     6
  9
$SURFTYPE
 70
     6
  9
$SURFU
 70
     6
  9
$SURFV
 70
     6
  9
$UCSNAME
  2

  9
$UCSORG
 10
0.0
 20
0.0
 30
0.0
  9
$UCSXDIR
 10
1.0
 20
0.0
 30
0.0
  9
$UCSYDIR
 10
0.0
 20
1.0
 30
0.0
  9
$PUCSNAME
  2

  9
$PUCSORG
 10
0.0
 20
0.0
 30
0.0
  9
$PUCSXDIR
 10
1.0
 20
0.0
 30
0.0
  9
$PUCSYDIR
 10
0.0
 20
1.0
 30
0.0
  9
$USERI1
 70
     0
  9
$USERI2
 70
     0
  9
$USERI3
 70
     0
  9
$USERI4
 70
     0
  9
$USERI5
 70
     0
  9
$USERR1
 40
0.0
  9
$USERR2
 40
0.0
  9
$USERR3
 40
0.0
  9
$USERR4
 40
0.0
  9
$USERR5
 40
0.0
  9
$WORLDVIEW
 70
     1
  9
$SHADEDGE
 70
     3
  9
$SHADEDIF
 70
    70
  9
$TILEMODE
 70
     1
  9
$MAXACTVP
 70
    64
  9
$PINSBASE
 10
0.0
 20
0.0
 30
0.0
  9
$PLIMCHECK
 70
     0
  9
$PEXTMIN
 10
1.000000000000000E+20
 20
1.000000000000000E+20
 30
1.000000000000000E+20
  9
$PEXTMAX
 10
-1.000000000000000E+20
 20
-1.000000000000000E+20
 30
-1.000000000000000E+20
  9
$PLIMMIN
 10
0.0
 20
0.0
  9
$PLIMMAX
 10
12.0
 20
9.0
  9
$UNITMODE
 70
     0
  9
$VISRETAIN
 70
     1
  9
$PLINEGEN
 70
     0
  9
$PSLTSCALE
 70
     1
  9
$TREEDEPTH
 70
  3020
  9
$PICKSTYLE
 70
     1
  9
$CMLSTYLE
  2
STANDARD
  9
$CMLJUST
 70
     0
  9
$CMLSCALE
 40
1.0
  9
$PROXYGRAPHICS
 70
     1
  9
$MEASUREMENT
 70
     1
  0
ENDSEC
  0
SECTION
  2
CLASSES
  0
CLASS
  1
ACDBDICTIONARYWDFLT
  2
AcDbDictionaryWithDefault
  3
ObjectDBX Classes
 90
        0
280
     0
281
     0
  0
CLASS
  1
VISUALSTYLE
  2
AcDbVisualStyle
  3
ObjectDBX Classes
 90
     4095
280
     0
281
     0
  0
CLASS
  1
MATERIAL
  2
AcDbMaterial
  3
ObjectDBX Classes
 90
     1153
280
     0
281
     0
  0
CLASS
  1
SCALE
  2
AcDbScale
  3
ObjectDBX Classes
 90
     1153
280
     0
281
     0
  0
CLASS
  1
TABLESTYLE
  2
AcDbTableStyle
  3
ObjectDBX Classes
 90
     4095
280
     0
281
     0
  0
CLASS
  1
MLEADERSTYLE
  2
AcDbMLeaderStyle
  3
ACDB_MLEADERSTYLE_CLASS
 90
     4095
280
     0
281
     0
  0
CLASS
  1
SUN
  2
AcDbSun
  3
SCENEOE
 90
     1153
280
     0
281
     0
  0
CLASS
  1
CAMERA
  2
AcDbCamera
  3
ACCAMERA
 90
      195
280
     0
281
     1
  0
CLASS
  1
DICTIONARYVAR
  2
AcDbDictionaryVar
  3
ObjectDBX Classes
 90
        0
280
     0
281
     0
  0
CLASS
  1
XRECORD
  2
AcDbXrecord
  3
ObjectDBX Classes
 90
        0
280
     0
281
     0
  0
CLASS
  1
LWPOLYLINE
  2
AcDbPolyline
  3
ObjectDBX Classes
 90
        0
280
     0
281
     1
  0
CLASS
  1
HATCH
  2
AcDbHatch
  3
ObjectDBX Classes
 90
        0
280
     0
281
     1
  0
CLASS
  1
ACDBPLACEHOLDER
  2
AcDbPlaceHolder
  3
ObjectDBX Classes
 90
        0
280
     0
281
     0
  0
CLASS
  1
LAYOUT
  2
AcDbLayout
  3
ObjectDBX Classes
 90
        0
280
     0
281
     0
  0
ENDSEC
  0
SECTION
  2
TABLES
  0
TABLE
  2
VPORT
  5
8
102
{ACAD_XDICTIONARY
360
593
102
}
330
0
100
AcDbSymbolTable
 70
     1
  0
VPORT
  5
29
330
8
100
AcDbSymbolTableRecord
100
AcDbViewportTableRecord
  2
*ACTIVE
 70
     0
 10
0.0
 20
0.0
 11
1.0
 21
1.0
 12
0.0
 22
0.0
 13
0.0
 23
0.0
 14
0.5
 24
0.5
 15
0.5
 25
0.5
 16
0.5842354979316003
 26
-0.7292228313552233
 36
0.3562343964118097
 17
197.0255307908311
 27
46.1327872919849
 37
25.35865591711234
 40
561.5334083980447
 41
1.78
 42
13.61933946203609
 43
-375.5969753522186
 44
2161.863024647781
 50
0.0
 51
0.0
 71
     1
 72
   100
 73
     1
 74
     3
 75
     0
 76
     0
 77
     0
 78
     0
  0
ENDTAB
  0
TABLE
  2
LTYPE
  5
5
330
0
100
AcDbSymbolTable
 70
     1
  0
LTYPE
  5
14
330
5
100
AcDbSymbolTableRecord
100
AcDbLinetypeTableRecord
  2
BYBLOCK
 70
     0
  3

 72
    65
 73
     0
 40
0.0
  0
LTYPE
  5
15
330
5
100
AcDbSymbolTableRecord
100
AcDbLinetypeTableRecord
  2
BYLAYER
 70
     0
  3

 72
    65
 73
     0
 40
0.0
  0
LTYPE
  5
16
330
5
100
AcDbSymbolTableRecord
100
AcDbLinetypeTableRecord
  2
CONTINUOUS
 70
     0
  3
Solid line
 72
    65
 73
     0
 40
0.0
  0
ENDTAB
  0
TABLE
  2
LAYER
  5
2
330
0
100
AcDbSymbolTable
 70
     2
  0
LAYER
  5
10
330
2
100
AcDbSymbolTableRecord
100
AcDbLayerTableRecord
  2
0
 70
     0
 62
    13
  6
CONTINUOUS
  0
LAYER
  5
6F
330
2
100
AcDbSymbolTableRecord
100
AcDbLayerTableRecord
  2
TEMPORARY_SYSTEM_CAMERAS_L
 70
     0
 62
     7
  6
CONTINUOUS
  0
ENDTAB
  0
TABLE
  2
STYLE
  5
3
330
0
100
AcDbSymbolTable
 70
     3
  0
STYLE
  5
11
330
3
100
AcDbSymbolTableRecord
100
AcDbTextStyleTableRecord
  2
STANDARD
 70
     0
 40
0.0
 41
1.0
 50
0.0
 71
     0
 42
0.2
  3
txt
  4

  0
STYLE
  5
71
330
3
100
AcDbSymbolTableRecord
100
AcDbTextStyleTableRecord
  2
ARIAL
 70
     0
 40
0.0
 41
1.0
 50
0.0
 71
     0
 42
0.2
  3
Arial
  4

1001
ACAD
1000
Arial
1071
       34
  0
STYLE
  5
72
330
3
100
AcDbSymbolTableRecord
100
AcDbTextStyleTableRecord
  2
TAHOMA
 70
     0
 40
0.0
 41
1.0
 50
0.0
 71
     0
 42
0.2
  3
Tahoma
  4

1001
ACAD
1000
Tahoma
1071
       34
  0
ENDTAB
  0
TABLE
  2
VIEW
  5
6
330
0
100
AcDbSymbolTable
 70
     1
  0
VIEW
  5
6E
330
6
100
AcDbSymbolTableRecord
100
AcDbViewTableRecord
  2
ESCENA1
 70
     0
 40
561.5334083980447
 10
0.0
 20
0.0
 41
999.5294669485196
 11
7.956901572102149
 21
-9.931533283693881
 31
4.851677172785967
 12
197.0255307908311
 22
46.1327872919849
 32
25.35865591711234
 42
13.61933946203609
 43
-375.5969753522186
 44
2161.863024647781
 50
0.0
 71
     1
  0
ENDTAB
  0
TABLE
  2
UCS
  5
7
330
0
100
AcDbSymbolTable
 70
     0
  0
ENDTAB
  0
TABLE
  2
APPID
  5
9
330
0
100
AcDbSymbolTable
 70
     3
  0
APPID
  5
12
330
9
100
AcDbSymbolTableRecord
100
AcDbRegAppTableRecord
  2
ACAD
 70
     0
  0
APPID
  5
75
330
9
100
AcDbSymbolTableRecord
100
AcDbRegAppTableRecord
  2
ACAD_MATERIAL_MAPPER
 70
     0
  0
APPID
  5
5A1
330
9
100
AcDbSymbolTableRecord
100
AcDbRegAppTableRecord
  2
ACAD_MLEADERVER
 70
     0
  0
ENDTAB
  0
TABLE
  2
DIMSTYLE
  5
A
330
0
100
AcDbSymbolTable
 70
     2
  0
DIMSTYLE
105
27
330
A
100
AcDbSymbolTableRecord
100
AcDbDimStyleTableRecord
  2
STANDARD
 70
     0
  3

  4

  5

  6

  7

 40
1.0
 41
0.18
 42
0.0625
 43
0.38
 44
0.18
 45
0.0
 46
0.0
 47
0.0
 48
0.0
140
0.18
141
0.09
142
0.0
143
25.4
144
1.0
145
0.0
146
1.0
147
0.09
 71
     0
 72
     0
 73
     1
 74
     1
 75
     0
 76
     0
 77
     0
 78
     0
170
     0
171
     2
172
     0
173
     0
174
     0
175
     0
176
     0
177
     0
178
     0
270
     2
271
     4
272
     4
273
     2
274
     2
340
11
275
     0
280
     0
281
     0
282
     0
283
     1
284
     0
285
     0
286
     0
287
     3
288
     0
  0
DIMSTYLE
105
73
330
A
100
AcDbSymbolTableRecord
100
AcDbDimStyleTableRecord
  2
DIMENSIONS
 70
     0
  3
cm
  4

  5

  6

  7

 40
1.0
 41
1.27
 42
1.27
 43
0.38
 44
1.27
 45
0.0
 46
0.0
 47
0.0
 48
0.0
140
2.54
141
0.09
142
0.0
143
25.4
144
1.0
145
0.0
146
1.0
147
0.254
 71
     0
 72
     0
 73
     1
 74
     1
 75
     0
 76
     0
 77
     0
 78
     0
170
     0
171
     2
172
     0
173
     0
174
     0
175
     0
176
     0
177
     0
178
     0
270
     2
271
     1
272
     4
273
     2
274
     2
340
71
275
     0
280
     0
281
     0
282
     0
283
     1
284
     0
285
     0
286
     0
287
     3
288
     0
  0
ENDTAB
  0
TABLE
  2
BLOCK_RECORD
  5
1
330
0
100
AcDbSymbolTable
 70
     0
  0
BLOCK_RECORD
  5
1F
330
1
100
AcDbSymbolTableRecord
100
AcDbBlockTableRecord
  2
*MODEL_SPACE
  0
BLOCK_RECORD
  5
1B
330
1
100
AcDbSymbolTableRecord
100
AcDbBlockTableRecord
  2
*PAPER_SPACE
  0
ENDTAB
  0
ENDSEC
  0
SECTION
  2
BLOCKS
  0
BLOCK
  5
20
330
1F
100
AcDbEntity
  8
0
100
AcDbBlockBegin
  2
*MODEL_SPACE
 70
     0
 10
0.0
 20
0.0
 30
0.0
  3
*MODEL_SPACE
  1

  0
ENDBLK
  5
21
330
1F
100
AcDbEntity
  8
0
100
AcDbBlockEnd
  0
BLOCK
  5
1C
330
1B
100
AcDbEntity
 67
     1
  8
0
100
AcDbBlockBegin
  2
*PAPER_SPACE
 70
     0
 10
0.0
 20
0.0
 30
0.0
  3
*PAPER_SPACE
  1

  0
ENDBLK
  5
1D
330
1B
100
AcDbEntity
 67
     1
  8
0
100
AcDbBlockEnd
  0
ENDSEC
  0
SECTION
  2
ENTITIES
  0
POLYLINE
  5
76
330
1F
100
AcDbEntity
  8
0
 62
     0
100
AcDbPolyFaceMesh
 66
     1
 10
0.0
 20
0.0
 30
0.0
 70
    64
 71
     4
 72
     2
1001
ACAD_MATERIAL_MAPPER
1070
     1
1070
     1
1070
     1
1011
0.0
1021
0.0000000000000227
1031
0.0000000000000346
1011
0.0
1021
-2.539999999999978
1031
0.0000000000000346
1011
0.0
1021
0.0000000000000227
1031
2.540000000000035
1011
1.0
1021
0.0000000000000227
1031
0.0000000000000346
  0
VERTEX
  5
77
330
76
100
AcDbEntity
  8
0
 62
     0
100
AcDbVertex
100
AcDbPolyFaceMeshVertex
 10
299.7599999999998
 20
-0.8200000000010809
 30
76.7999999999999
 70
   192
  0
VERTEX
  5
78
330
76
100
AcDbEntity
  8
0
 62
     0
100
AcDbVertex
100
AcDbPolyFaceMeshVertex
 10
299.7599999999997
 20
-1.640000000000596
 30
25.11052362656889
 70
   192
  0
VERTEX
  5
79
330
76
100
AcDbEntity
  8
0
 62
     0
100
AcDbVertex
100
AcDbPolyFaceMeshVertex
 10
299.7599999999996
 20
-1.640000000001283
 30
76.79999999999988
 70
   192
  0
VERTEX
  5
7A
330
76
100
AcDbEntity
  8
0
 62
     0
100
AcDbVertex
100
AcDbPolyFaceMeshVertex
 10
299.7599999999998
 20
-0.820000000000557
 30
25.1105236265689
 70
   192
  0
VERTEX
  5
7B
330
76
100
AcDbEntity
  8
0
 62
     0
100
AcDbFaceRecord
 10
0.0
 20
0.0
 30
0.0
 70
   128
 71
    -1
 72
     2
 73
     3
  0
VERTEX
  5
7C
330
76
100
AcDbEntity
  8
0
 62
     0
100
AcDbFaceRecord
 10
0.0
 20
0.0
 30
0.0
 70
   128
 71
    -2
 72
     1
 73
     4
  0
SEQEND
  5
7D
330
76
100
AcDbEntity
  8
0
 62
     0
  0
LINE
  5
7E
330
1F
100
AcDbEntity
  8
0
 62
   253
100
AcDbLine
 10
299.7599999999998
 20
-0.8200000000010809
 30
76.7999999999999
 11
299.7599999999998
 21
-0.820000000000557
 31
25.1105236265689
  0
LINE
  5
7F
330
1F
100
AcDbEntity
  8
0
 62
   253
100
AcDbLine
 10
299.7599999999998
 20
-0.820000000000557
 30
25.1105236265689
 11
299.7599999999997
 21
-1.640000000000596
 31
25.11052362656889
  0
LINE
  5
80
330
1F
100
AcDbEntity
  8
0
 62
   253
100
AcDbLine
 10
299.7599999999996
 20
-1.640000000001283
 30
76.79999999999988
 11
299.7599999999997
 21
-1.640000000000596
 31
25.11052362656889
  0
LINE
  5
81
330
1F
100
AcDbEntity
  8
0
 62
   253
100
AcDbLine
 10
299.7599999999998
 20
-0.8200000000010809
 30
76.7999999999999
 11
299.7599999999996
 21
-1.640000000001283
 31
76.79999999999988
  0
POLYLINE
  5
82
330
1F
100
AcDbEntity
  8
0
 62
   253
100
AcDbPolyFaceMesh
 66
     1
 10
0.0
 20
0.0
 30
0.0
 70
    64
 71
    10
 72
    10
1001
ACAD_MATERIAL_MAPPER
1070
     1
1070
     1
1070
     1
1011
0.0
1021
0.0
1031
-0.0000000000000103
1011
-2.54
1021
0.0
1031
-0.0000000000000104
1011
-0.0000000000000041
1021
0.0
1031
2.539999999999989
1011
0.0
1021
1.0
1031
-0.0000000000000103
  0
VERTEX
  5
83
330
82
100
AcDbEntity
  8
0
 62
   253
100
AcDbVertex
100
AcDbPolyFaceMeshVertex
 10
50.26000000000004
 20
-0.8200000000003398
 30
15.11052362656891
 70
   192
  0
VERTEX
  5
84
330
82
100
AcDbEntity
  8
0
 62
   253
100
AcDbVertex
100
AcDbPolyFaceMeshVertex
 10
121.28
 20
-0.8200000000004715
 30
25.1105236265689
 70
   192
  0
VERTEX
  5
85
330
82
100
AcDbEntity
  8
0
 62
   253
100
AcDbVertex
100
AcDbPolyFaceMeshVertex
 10
121.28
 20
-0.820000000000324
 30
15.11052362656891
 70
   192
  0
VERTEX
  5
86
330
82
100
AcDbEntity
  8
0
 62
   253
100
AcDbVertex
100
AcDbPolyFaceMeshVertex
 10
60.2600000000001
 20
-0.8200000000004671
 30
25.11052362656891
 70
   192
  0
VERTEX
  5
87
330
82
100
AcDbEntity
  8
0
 62
   253
100
AcDbVertex
100
AcDbPolyFaceMeshVertex
 10
50.26000000000004
 20
-0.8200000000010471
 30
86.79999999999993
 70
   192
  0
VERTEX
  5
88
330
82
100
AcDbEntity
  8
0
 62
   253
100
AcDbVertex
100
AcDbPolyFaceMeshVertex
 10
60.2600000000001
 20
-0.8200000000009517
 30
76.79999999999991
 70
   192
  0
VERTEX
  5
89
330
82
100
AcDbEntity
  8
0
 62
   253
100
AcDbVertex
100
AcDbPolyFaceMeshVertex
 10
111.2800000000001
 20
-0.8200000000009695
 30
76.79999999999991
 70
   192
  0
VERTEX
  5
8A
330
82
100
AcDbEntity
  8
0
 62
   253
100
AcDbVertex
100
AcDbPolyFaceMeshVertex
 10
111.2800000000001
 20
-0.8200000000004852
 30
25.11052362656891
 70
   192
  0
VERTEX
  5
8B
330
82
100
AcDbEntity
  8
0
 62
   253
100
AcDbVertex
100
AcDbPolyFaceMeshVertex
 10
121.28
 20
-0.8200000000009303
 30
76.79999999999991
 70
   192
  0
VERTEX
  5
8C
330
82
100
AcDbEntity
  8
0
 62
   253
100
AcDbVertex
100
AcDbPolyFaceMeshVertex
 10
121.2800000000001
 20
-0.820000000001084
 30
86.79999999999993
 70
   192
  0
VERTEX
  5
8D
330
82
100
AcDbEntity
  8
0
 62
   253
100
AcDbFaceRecord
 10
0.0
 20
0.0
 30
0.0
 70
   128
 71
    -1
 72
     2
 73
     3
  0
VERTEX
  5
8E
330
82
100
AcDbEntity
  8
0
 62
   253
100
AcDbFaceRecord
 10
0.0
 20
0.0
 30
0.0
 70
   128
 71
    -2
 72
    -1
 73
    -4
  0
VERTEX
  5
8F
330
82
100
AcDbEntity
  8
0
 62
   253
100
AcDbFaceRecord
 10
0.0
 20
0.0
 30
0.0
 70
   128
 71
    -4
 72
     1
 73
    -5
  0
VERTEX
  5
90
330
82
100
AcDbEntity
  8
0
 62
   253
100
AcDbFaceRecord
 10
0.0
 20
0.0
 30
0.0
 70
   128
 71
    -4
 72
    -5
 73
     6
  0
VERTEX
  5
91
330
82
100
AcDbEntity
  8
0
 62
   253
100
AcDbFaceRecord
 10
0.0
 20
0.0
 30
0.0
 70
   128
 71
    -6
 72
    -5
 73
     7
  0
VERTEX
  5
92
330
82
100
AcDbEntity
  8
0
 62
   253
100
AcDbFaceRecord
 10
0.0
 20
0.0
 30
0.0
 70
   128
 71
    -2
 72
    -8
 73
     9
  0
VERTEX
  5
93
330
82
100
AcDbEntity
  8
0
 62
   253
100
AcDbFaceRecord
 10
0.0
 20
0.0
 30
0.0
 70
   128
 71
    -8
 72
    -2
 73
     4
  0
VERTEX
  5
94
330
82
100
AcDbEntity
  8
0
 62
   253
100
AcDbFaceRecord
 10
0.0
 20
0.0
 30
0.0
 70
   128
 71
    -9
 72
     8
 73
    -7
  0
VERTEX
  5
95
330
82
100
AcDbEntity
  8
0
 62
   253
100
AcDbFaceRecord
 10
0.0
 20
0.0
 30
0.0
 70
   128
 71
    -9
 72
    -7
 73
    10
  0
VERTEX
  5
96
330
82
100
AcDbEntity
  8
0
 62
   253
100
AcDbFaceRecord
 10
0.0
 20
0.0
 30
0.0
 70
   128
 71
   -10
 72
    -7
 73
     5
  0
SEQEND
  5
97
330
82
100
AcDbEntity
  8
0
 62
   253
  0
LINE
  5
98
330
1F
100
AcDbEntity
  8
0
 62
   253
100
AcDbLine
 10
121.2800000000001
 20
-0.820000000001084
 30
86.79999999999993
 11
121.28
 21
-0.8200000000009303
 31
76.79999999999991
  0
LINE
  5
99
330
1F
100
AcDbEntity
  8
0
 62
   253
100
AcDbLine
 10
121.28
 20
-0.8200000000009303
 30
76.79999999999991
 11
121.28
 21
-0.8200000000004715
 31
25.1105236265689
  0
LINE
  5
9A
330
1F
100
AcDbEntity
  8
0
 62
   253
100
AcDbLine
 10
121.28
 20
-0.8200000000004715
 30
25.1105236265689
 11
121.28
 21
-0.820000000000324
 31
15.11052362656891
  0
LINE
  5
9B
330
1F
100
AcDbEntity
  8
0
 62
   253
100
AcDbLine
 10
121.28
 20
-0.820000000000324
 30
15.11052362656891
 11
50.26000000000004
 21
-0.8200000000003398
 31
15.11052362656891
  0
LINE
  5
9C
330
1F
100
AcDbEntity
  8
0
 62
   253
100
AcDbLine
 10
50.26000000000004
 20
-0.8200000000003398
 30
15.11052362656891
 11
50.26000000000004
 21
-0.8200000000010471
 31
86.79999999999993
  0
LINE
  5
9D
330
1F
100
AcDbEntity
  8
0
 62
   253
100
AcDbLine
 10
50.26000000000004
 20
-0.8200000000010471
 30
86.79999999999993
 11
121.2800000000001
 21
-0.820000000001084
 31
86.79999999999993
  0
LINE
  5
9E
330
1F
100
AcDbEntity
  8
0
 62
   253
100
AcDbLine
 10
111.2800000000001
 20
-0.8200000000009695
 30
76.79999999999991
 11
111.2800000000001
 21
-0.8200000000004852
 31
25.11052362656891
  0
LINE
  5
9F
330
1F
100
AcDbEntity
  8
0
 62
   253
100
AcDbLine
 10
60.2600000000001
 20
-0.8200000000009517
 30
76.79999999999991
 11
111.2800000000001
 21
-0.8200000000009695
 31
76.79999999999991
  0
LINE
  5
A0
330
1F
100
AcDbEntity
  8
0
 62
   253
100
AcDbLine
 10
60.2600000000001
 20
-0.8200000000004671
 30
25.11052362656891
 11
60.2600000000001
 21
-0.8200000000009517
 31
76.79999999999991
  0
LINE
  5
A1
330
1F
100
AcDbEntity
  8
0
 62
   253
100
AcDbLine
 10
111.2800000000001
 20
-0.8200000000004852
 30
25.11052362656891
 11
60.2600000000001
 21
-0.8200000000004671
 31
25.11052362656891
  0
POLYLINE
  5
A2
330
1F
100
AcDbEntity
  8
0
 62
     0
100
AcDbPolyFaceMesh
 66
     1
 10
0.0
 20
0.0
 30
0.0
 70
    64
 71
     4
 72
     2
1001
ACAD_MATERIAL_MAPPER
1070
     1
1070
     1
1070
     1
1011
0.0000000000001463
1021
-0.0000000000000017
1031
0.0
1011
-2.539999999999855
1021
-0.0000000000000017
1031
0.0
1011
0.0000000000002194
1021
2.54
1031
0.0
1011
0.0000000000001463
1021
-0.0000000000000017
1031
1.0
  0
VERTEX
  5
A3
330
A2
100
AcDbEntity
  8
0
 62
     0
100
AcDbVertex
100
AcDbPolyFaceMeshVertex
 10
200.8600000000002
 20
-0.8200000000010397
 30
76.79999999999987
 70
   192
  0
VERTEX
  5
A4
330
A2
100
AcDbEntity
  8
0
 62
     0
100
AcDbVertex
100
AcDbPolyFaceMeshVertex
 10
249.7799999999998
 20
-1.640000000001277
 30
76.79999999999987
 70
   192
  0
VERTEX
  5
A5
330
A2
100
AcDbEntity
  8
0
 62
     0
100
AcDbVertex
100
AcDbPolyFaceMeshVertex
 10
200.8600000000001
 20
-1.640000000001173
 30
76.79999999999987
 70
   192
  0
VERTEX
  5
A6
330
A2
100
AcDbEntity
  8
0
 62
     0
100
AcDbVertex
100
AcDbPolyFaceMeshVertex
 10
249.78
 20
-0.820000000001056
 30
76.79999999999987
 70
   192
  0
VERTEX
  5
A7
330
A2
100
AcDbEntity
  8
0
 62
     0
100
AcDbFaceRecord
 10
0.0
 20
0.0
 30
0.0
 70
   128
 71
    -1
 72
     2
 73
     3
  0
VERTEX
  5
A8
330
A2
100
AcDbEntity
  8
0
 62
     0
100
AcDbFaceRecord
 10
0.0
 20
0.0
 30
0.0
 70
   128
 71
    -2
 72
     1
 73
     4
  0
SEQEND
  5
A9
330
A2
100
AcDbEntity
  8
0
 62
     0
  0
LINE
  5
AA
330
1F
100
AcDbEntity
  8
0
 62
     0
100
AcDbLine
 10
200.8600000000002
 20
-0.8200000000010397
 30
76.79999999999987
 11
249.78
 21
-0.820000000001056
 31
76.79999999999987
  0
LINE
  5
AB
330
1F
100
AcDbEntity
  8
0
 62
   253
100
AcDbLine
 10
249.78
 20
-0.820000000001056
 30
76.79999999999987
 11
249.7799999999998
 21
-1.640000000001277
 31
76.79999999999987
  0
LINE
  5
AC
330
1F
100
AcDbEntity
  8
0
 62
   253
100
AcDbLine
 10
200.8600000000001
 20
-1.640000000001173
 30
76.79999999999987
 11
249.7799999999998
 21
-1.640000000001277
 31
76.79999999999987
  0
LINE
  5
AD
330
1F
100
AcDbEntity
  8
0
 62
   253
100
AcDbLine
 10
200.8600000000002
 20
-0.8200000000010397
 30
76.79999999999987
 11
200.8600000000001
 21
-1.640000000001173
 31
76.79999999999987
  0
POLYLINE
  5
AE
330
1F
100
AcDbEntity
  8
0
 62
     0
100
AcDbPolyFaceMesh
 66
     1
 10
0.0
 20
0.0
 30
0.0
 70
    64
 71
     4
 72
     2
1001
ACAD_MATERIAL_MAPPER
1070
     1
1070
     1
1070
     1
1011
-0.0000000000009703
1021
-0.0000000000016847
1031
0.0
1011
-2.540000000000969
1021
-0.0000000000016847
1031
0.0
1011
-0.0000000000010916
1021
2.539999999998314
1031
0.0
1011
-0.0000000000009703
1021
-0.0000000000016847
1031
1.0
  0
VERTEX
  5
AF
330
AE
100
AcDbEntity
  8
0
 62
     0
100
AcDbVertex
100
AcDbPolyFaceMeshVertex
 10
299.7599999999998
 20
-0.8200000000010809
 30
76.7999999999999
 70
   192
  0
VERTEX
  5
B0
330
AE
100
AcDbEntity
  8
0
 62
     0
100
AcDbVertex
100
AcDbPolyFaceMeshVertex
 10
270.26
 20
-1.64000000000126
 30
76.79999999999988
 70
   192
  0
VERTEX
  5
B1
330
AE
100
AcDbEntity
  8
0
 62
     0
100
AcDbVertex
100
AcDbPolyFaceMeshVertex
 10
270.2599999999999
 20
-0.8200000000011756
 30
76.7999999999999
 70
   192
  0
VERTEX
  5
B2
330
AE
100
AcDbEntity
  8
0
 62
     0
100
AcDbVertex
100
AcDbPolyFaceMeshVertex
 10
299.7599999999996
 20
-1.640000000001283
 30
76.79999999999988
 70
   192
  0
VERTEX
  5
B3
330
AE
100
AcDbEntity
  8
0
 62
     0
100
AcDbFaceRecord
 10
0.0
 20
0.0
 30
0.0
 70
   128
 71
    -1
 72
     2
 73
     3
  0
VERTEX
  5
B4
330
AE
100
AcDbEntity
  8
0
 62
     0
100
AcDbFaceRecord
 10
0.0
 20
0.0
 30
0.0
 70
   128
 71
    -2
 72
     1
 73
     4
  0
SEQEND
  5
B5
330
AE
100
AcDbEntity
  8
0
 62
     0
  0
LINE
  5
B6
330
1F
100
AcDbEntity
  8
0
 62
     0
100
AcDbLine
 10
270.2599999999999
 20
-0.8200000000011756
 30
76.7999999999999
 11
299.7599999999998
 21
-0.8200000000010809
 31
76.7999999999999
  0
LINE
  5
B7
330
1F
100
AcDbEntity
  8
0
 62
   253
100
AcDbLine
 10
299.7599999999998
 20
-0.8200000000010809
 30
76.7999999999999
 11
299.7599999999996
 21
-1.640000000001283
 31
76.79999999999988
  0
LINE
  5
B8
330
1F
100
AcDbEntity
  8
0
 62
   253
100
AcDbLine
 10
270.26
 20
-1.64000000000126
 30
76.79999999999988
 11
299.7599999999996
 21
-1.640000000001283
 31
76.79999999999988
  0
LINE
  5
B9
330
1F
100
AcDbEntity
  8
0
 62
   253
100
AcDbLine
 10
270.2599999999999
 20
-0.8200000000011756
 30
76.7999999999999
 11
270.26
 21
-1.64000000000126
 31
76.79999999999988
  0
POLYLINE
  5
BA
330
1F
100
AcDbEntity
  8
0
 62
   253
100
AcDbPolyFaceMesh
 66
     1
 10
0.0
 20
0.0
 30
0.0
 70
    64
 71
     4
 72
     2
1001
ACAD_MATERIAL_MAPPER
1070
     1
1070
     1
1070
     1
1011
0.0
1021
0.0000000000000098
1031
-0.0000000000000112
1011
0.0
1021
2.54000000000001
1031
-0.0000000000000112
1011
0.0
1021
0.0000000000000099
1031
2.539999999999989
1011
1.0
1021
0.0000000000000098
1031
-0.0000000000000112
  0
VERTEX
  5
BB
330
BA
100
AcDbEntity
  8
0
 62
   253
100
AcDbVertex
100
AcDbPolyFaceMeshVertex
 10
121.2799999999999
 20
-1.640000000000406
 30
15.11052362656889
 70
   192
  0
VERTEX
  5
BC
330
BA
100
AcDbEntity
  8
0
 62
   253
100
AcDbVertex
100
AcDbPolyFaceMeshVertex
 10
121.28
 20
-0.8200000000004715
 30
25.1105236265689
 70
   192
  0
VERTEX
  5
BD
330
BA
100
AcDbEntity
  8
0
 62
   253
100
AcDbVertex
100
AcDbPolyFaceMeshVertex
 10
121.28
 20
-1.640000000000519
 30
25.11052362656888
 70
   192
  0
VERTEX
  5
BE
330
BA
100
AcDbEntity
  8
0
 62
   253
100
AcDbVertex
100
AcDbPolyFaceMeshVertex
 10
121.28
 20
-0.820000000000324
 30
15.11052362656891
 70
   192
  0
VERTEX
  5
BF
330
BA
100
AcDbEntity
  8
0
 62
   253
100
AcDbFaceRecord
 10
0.0
 20
0.0
 30
0.0
 70
   128
 71
    -1
 72
     2
 73
     3
  0
VERTEX
  5
C0
330
BA
100
AcDbEntity
  8
0
 62
   253
100
AcDbFaceRecord
 10
0.0
 20
0.0
 30
0.0
 70
   128
 71
    -2
 72
     1
 73
     4
  0
SEQEND
  5
C1
330
BA
100
AcDbEntity
  8
0
 62
   253
  0
LINE
  5
C2
330
1F
100
AcDbEntity
  8
0
 62
   253
100
AcDbLine
 10
121.28
 20
-1.640000000000519
 30
25.11052362656888
 11
121.2799999999999
 21
-1.640000000000406
 31
15.11052362656889
  0
LINE
  5
C3
330
1F
100
AcDbEntity
  8
0
 62
   253
100
AcDbLine
 10
121.28
 20
-0.820000000000324
 30
15.11052362656891
 11
121.2799999999999
 21
-1.640000000000406
 31
15.11052362656889
  0
LINE
  5
C4
330
1F
100
AcDbEntity
  8
0
 62
   253
100
AcDbLine
 10
121.28
 20
-0.8200000000004715
 30
25.1105236265689
 11
121.28
 21
-0.820000000000324
 31
15.11052362656891
  0
LINE
  5
C5
330
1F
100
AcDbEntity
  8
0
 62
     0
100
AcDbLine
 10
121.28
 20
-1.640000000000519
 30
25.11052362656888
 11
121.28
 21
-0.8200000000004715
 31
25.1105236265689
  0
POLYLINE
  5
C6
330
1F
100
AcDbEntity
  8
0
 62
     0
100
AcDbPolyFaceMesh
 66
     1
 10
0.0
 20
0.0
 30
0.0
 70
    64
 71
    10
 72
    10
1001
ACAD_MATERIAL_MAPPER
1070
     1
1070
     1
1070
     1
1011
0.0000000000001816
1021
0.0
1031
-0.0000000000000454
1011
2.540000000000178
1021
0.0
1031
-0.0000000000000454
1011
0.0000000000001816
1021
0.0
1031
2.539999999999955
1011
0.0000000000001816
1021
1.0
1031
-0.0000000000000454
  0
VERTEX
  5
C7
330
C6
100
AcDbEntity
  8
0
 62
     0
100
AcDbVertex
100
AcDbPolyFaceMeshVertex
 10
121.2799999999998
 20
-1.640000000001082
 30
76.7999999999999
 70
   192
  0
VERTEX
  5
C8
330
C6
100
AcDbEntity
  8
0
 62
     0
100
AcDbVertex
100
AcDbPolyFaceMeshVertex
 10
111.2800000000002
 20
-1.64000000000064
 30
25.11052362656888
 70
   192
  0
VERTEX
  5
C9
330
C6
100
AcDbEntity
  8
0
 62
     0
100
AcDbVertex
100
AcDbPolyFaceMeshVertex
 10
121.28
 20
-1.640000000000519
 30
25.11052362656888
 70
   192
  0
VERTEX
  5
CA
330
C6
100
AcDbEntity
  8
0
 62
     0
100
AcDbVertex
100
AcDbPolyFaceMeshVertex
 10
111.2800000000003
 20
-1.640000000001117
 30
76.7999999999999
 70
   192
  0
VERTEX
  5
CB
330
C6
100
AcDbEntity
  8
0
 62
     0
100
AcDbVertex
100
AcDbPolyFaceMeshVertex
 10
121.2799999999999
 20
-1.640000000001211
 30
86.79999999999993
 70
   192
  0
VERTEX
  5
CC
330
C6
100
AcDbEntity
  8
0
 62
     0
100
AcDbVertex
100
AcDbPolyFaceMeshVertex
 10
60.26000000000004
 20
-1.640000000001056
 30
76.7999999999999
 70
   192
  0
VERTEX
  5
CD
330
C6
100
AcDbEntity
  8
0
 62
     0
100
AcDbVertex
100
AcDbPolyFaceMeshVertex
 10
50.26000000000003
 20
-1.640000000000461
 30
15.11052362656889
 70
   192
  0
VERTEX
  5
CE
330
C6
100
AcDbEntity
  8
0
 62
     0
100
AcDbVertex
100
AcDbPolyFaceMeshVertex
 10
121.2799999999999
 20
-1.640000000000406
 30
15.11052362656889
 70
   192
  0
VERTEX
  5
CF
330
C6
100
AcDbEntity
  8
0
 62
     0
100
AcDbVertex
100
AcDbPolyFaceMeshVertex
 10
60.26000000000001
 20
-1.640000000000539
 30
25.11052362656889
 70
   192
  0
VERTEX
  5
D0
330
C6
100
AcDbEntity
  8
0
 62
     0
100
AcDbVertex
100
AcDbPolyFaceMeshVertex
 10
50.25999999999998
 20
-1.640000000001232
 30
86.79999999999993
 70
   192
  0
VERTEX
  5
D1
330
C6
100
AcDbEntity
  8
0
 62
     0
100
AcDbFaceRecord
 10
0.0
 20
0.0
 30
0.0
 70
   128
 71
    -1
 72
    -2
 73
     3
  0
VERTEX
  5
D2
330
C6
100
AcDbEntity
  8
0
 62
     0
100
AcDbFaceRecord
 10
0.0
 20
0.0
 30
0.0
 70
   128
 71
    -2
 72
    -1
 73
     4
  0
VERTEX
  5
D3
330
C6
100
AcDbEntity
  8
0
 62
     0
100
AcDbFaceRecord
 10
0.0
 20
0.0
 30
0.0
 70
   128
 71
    -4
 72
     1
 73
    -5
  0
VERTEX
  5
D4
330
C6
100
AcDbEntity
  8
0
 62
     0
100
AcDbFaceRecord
 10
0.0
 20
0.0
 30
0.0
 70
   128
 71
    -4
 72
    -5
 73
     6
  0
VERTEX
  5
D5
330
C6
100
AcDbEntity
  8
0
 62
     0
100
AcDbFaceRecord
 10
0.0
 20
0.0
 30
0.0
 70
   128
 71
    -3
 72
     7
 73
     8
  0
VERTEX
  5
D6
330
C6
100
AcDbEntity
  8
0
 62
     0
100
AcDbFaceRecord
 10
0.0
 20
0.0
 30
0.0
 70
   128
 71
    -7
 72
    -3
 73
    -2
  0
VERTEX
  5
D7
330
C6
100
AcDbEntity
  8
0
 62
     0
100
AcDbFaceRecord
 10
0.0
 20
0.0
 30
0.0
 70
   128
 71
    -7
 72
     2
 73
    -9
  0
VERTEX
  5
D8
330
C6
100
AcDbEntity
  8
0
 62
     0
100
AcDbFaceRecord
 10
0.0
 20
0.0
 30
0.0
 70
   128
 71
    -7
 72
    -9
 73
    10
  0
VERTEX
  5
D9
330
C6
100
AcDbEntity
  8
0
 62
     0
100
AcDbFaceRecord
 10
0.0
 20
0.0
 30
0.0
 70
   128
 71
   -10
 72
     9
 73
    -6
  0
VERTEX
  5
DA
330
C6
100
AcDbEntity
  8
0
 62
     0
100
AcDbFaceRecord
 10
0.0
 20
0.0
 30
0.0
 70
   128
 71
   -10
 72
    -6
 73
     5
  0
SEQEND
  5
DB
330
C6
100
AcDbEntity
  8
0
 62
     0
  0
LINE
  5
DC
330
1F
100
AcDbEntity
  8
0
 62
   253
100
AcDbLine
 10
121.2799999999999
 20
-1.640000000001211
 30
86.79999999999993
 11
121.2799999999998
 21
-1.640000000001082
 31
76.7999999999999
  0
LINE
  5
DD
330
1F
100
AcDbEntity
  8
0
 62
   253
100
AcDbLine
 10
50.25999999999998
 20
-1.640000000001232
 30
86.79999999999993
 11
121.2799999999999
 21
-1.640000000001211
 31
86.79999999999993
  0
LINE
  5
DE
330
1F
100
AcDbEntity
  8
0
 62
   253
100
AcDbLine
 10
50.26000000000003
 20
-1.640000000000461
 30
15.11052362656889
 11
50.25999999999998
 21
-1.640000000001232
 31
86.79999999999993
  0
LINE
  5
DF
330
1F
100
AcDbEntity
  8
0
 62
   253
100
AcDbLine
 10
121.2799999999999
 20
-1.640000000000406
 30
15.11052362656889
 11
50.26000000000003
 21
-1.640000000000461
 31
15.11052362656889
  0
LINE
  5
E0
330
1F
100
AcDbEntity
  8
0
 62
   253
100
AcDbLine
 10
121.28
 20
-1.640000000000519
 30
25.11052362656888
 11
121.2799999999999
 21
-1.640000000000406
 31
15.11052362656889
  0
LINE
  5
E1
330
1F
100
AcDbEntity
  8
0
 62
   253
100
AcDbLine
 10
121.2799999999998
 20
-1.640000000001082
 30
76.7999999999999
 11
121.28
 21
-1.640000000000519
 31
25.11052362656888
  0
LINE
  5
E2
330
1F
100
AcDbEntity
  8
0
 62
   253
100
AcDbLine
 10
111.2800000000003
 20
-1.640000000001117
 30
76.7999999999999
 11
111.2800000000002
 21
-1.64000000000064
 31
25.11052362656888
  0
LINE
  5
E3
330
1F
100
AcDbEntity
  8
0
 62
   253
100
AcDbLine
 10
111.2800000000002
 20
-1.64000000000064
 30
25.11052362656888
 11
60.26000000000001
 21
-1.640000000000539
 31
25.11052362656889
  0
LINE
  5
E4
330
1F
100
AcDbEntity
  8
0
 62
   253
100
AcDbLine
 10
60.26000000000001
 20
-1.640000000000539
 30
25.11052362656889
 11
60.26000000000004
 21
-1.640000000001056
 31
76.7999999999999
  0
LINE
  5
E5
330
1F
100
AcDbEntity
  8
0
 62
   253
100
AcDbLine
 10
60.26000000000004
 20
-1.640000000001056
 30
76.7999999999999
 11
111.2800000000003
 21
-1.640000000001117
 31
76.7999999999999
  0
POLYLINE
  5
E6
330
1F
100
AcDbEntity
  8
0
 62
   253
100
AcDbPolyFaceMesh
 66
     1
 10
0.0
 20
0.0
 30
0.0
 70
    64
 71
     4
 72
     2
1001
ACAD_MATERIAL_MAPPER
1070
     1
1070
     1
1070
     1
1011
0.0000000000037839
1021
0.0
1031
0.000000000000946
1011
2.540000000003713
1021
0.0
1031
0.000000000000946
1011
0.0000000000037849
1021
0.0
1031
2.540000000000884
1011
0.0000000000037839
1021
1.0
1031
0.000000000000946
  0
VERTEX
  5
E7
330
E6
100
AcDbEntity
  8
0
 62
   253
100
AcDbVertex
100
AcDbPolyFaceMeshVertex
 10
121.7599999999999
 20
-0.820000000000483
 30
25.11052362656891
 70
   192
  0
VERTEX
  5
E8
330
E6
100
AcDbEntity
  8
0
 62
   253
100
AcDbVertex
100
AcDbPolyFaceMeshVertex
 10
121.28
 20
-0.8200000000009303
 30
76.79999999999991
 70
   192
  0
VERTEX
  5
E9
330
E6
100
AcDbEntity
  8
0
 62
   253
100
AcDbVertex
100
AcDbPolyFaceMeshVertex
 10
121.28
 20
-0.8200000000004715
 30
25.1105236265689
 70
   192
  0
VERTEX
  5
EA
330
E6
100
AcDbEntity
  8
0
 62
   253
100
AcDbVertex
100
AcDbPolyFaceMeshVertex
 10
121.7599999999999
 20
-0.8200000000010811
 30
76.7999999999999
 70
   192
  0
VERTEX
  5
EB
330
E6
100
AcDbEntity
  8
0
 62
   253
100
AcDbFaceRecord
 10
0.0
 20
0.0
 30
0.0
 70
   128
 71
    -1
 72
     2
 73
     3
  0
VERTEX
  5
EC
330
E6
100
AcDbEntity
  8
0
 62
   253
100
AcDbFaceRecord
 10
0.0
 20
0.0
 30
0.0
 70
   128
 71
    -2
 72
     1
 73
     4
  0
SEQEND
  5
ED
330
E6
100
AcDbEntity
  8
0
 62
   253
  0
LINE
  5
EE
330
1F
100
AcDbEntity
  8
0
 62
   253
100
AcDbLine
 10
121.28
 20
-0.8200000000009303
 30
76.79999999999991
 11
121.7599999999999
 21
-0.8200000000010811
 31
76.7999999999999
  0
LINE
  5
EF
330
1F
100
AcDbEntity
  8
0
 62
   253
100
AcDbLine
 10
121.28
 20
-0.8200000000009303
 30
76.79999999999991
 11
121.28
 21
-0.8200000000004715
 31
25.1105236265689
  0
LINE
  5
F0
330
1F
100
AcDbEntity
  8
0
 62
   253
100
AcDbLine
 10
121.7599999999999
 20
-0.820000000000483
 30
25.11052362656891
 11
121.28
 21
-0.8200000000004715
 31
25.1105236265689
  0
LINE
  5
F1
330
1F
100
AcDbEntity
  8
0
 62
   253
100
AcDbLine
 10
121.7599999999999
 20
-0.8200000000010811
 30
76.7999999999999
 11
121.7599999999999
 21
-0.820000000000483
 31
25.11052362656891
  0
POLYLINE
  5
F2
330
1F
100
AcDbEntity
  8
0
 62
   253
100
AcDbPolyFaceMesh
 66
     1
 10
0.0
 20
0.0
 30
0.0
 70
    64
 71
     4
 72
     2
1001
ACAD_MATERIAL_MAPPER
1070
     1
1070
     1
1070
     1
1011
-0.0000000000000126
1021
-0.0000000000002079
1031
0.0
1011
-2.540000000000012
1021
-0.0000000000002079
1031
0.0
1011
-0.0000000000000126
1021
2.539999999999792
1031
0.0
1011
-0.0000000000000126
1021
-0.0000000000002079
1031
1.0
  0
VERTEX
  5
F3
330
F2
100
AcDbEntity
  8
0
 62
   253
100
AcDbVertex
100
AcDbPolyFaceMeshVertex
 10
121.28
 20
-0.0000000000003034
 30
15.11052362656892
 70
   192
  0
VERTEX
  5
F4
330
F2
100
AcDbEntity
  8
0
 62
   253
100
AcDbVertex
100
AcDbPolyFaceMeshVertex
 10
50.26000000000004
 20
-0.8200000000003398
 30
15.11052362656891
 70
   192
  0
VERTEX
  5
F5
330
F2
100
AcDbEntity
  8
0
 62
   253
100
AcDbVertex
100
AcDbPolyFaceMeshVertex
 10
50.26000000000003
 20
-0.0000000000002887
 30
15.11052362656892
 70
   192
  0
VERTEX
  5
F6
330
F2
100
AcDbEntity
  8
0
 62
   253
100
AcDbVertex
100
AcDbPolyFaceMeshVertex
 10
121.28
 20
-0.820000000000324
 30
15.11052362656891
 70
   192
  0
VERTEX
  5
F7
330
F2
100
AcDbEntity
  8
0
 62
   253
100
AcDbFaceRecord
 10
0.0
 20
0.0
 30
0.0
 70
   128
 71
    -1
 72
     2
 73
     3
  0
VERTEX
  5
F8
330
F2
100
AcDbEntity
  8
0
 62
   253
100
AcDbFaceRecord
 10
0.0
 20
0.0
 30
0.0
 70
   128
 71
    -2
 72
     1
 73
     4
  0
SEQEND
  5
F9
330
F2
100
AcDbEntity
  8
0
 62
   253
  0
LINE
  5
FA
330
1F
100
AcDbEntity
  8
0
 62
   253
100
AcDbLine
 10
50.26000000000003
 20
-0.0000000000002887
 30
15.11052362656892
 11
50.26000000000004
 21
-0.8200000000003398
 31
15.11052362656891
  0
LINE
  5
FB
330
1F
100
AcDbEntity
  8
0
 62
   253
100
AcDbLine
 10
121.28
 20
-0.0000000000003034
 30
15.11052362656892
 11
50.26000000000003
 21
-0.0000000000002887
 31
15.11052362656892
  0
LINE
  5
FC
330
1F
100
AcDbEntity
  8
0
 62
   253
100
AcDbLine
 10
121.28
 20
-0.0000000000003034
 30
15.11052362656892
 11
121.28
 21
-0.820000000000324
 31
15.11052362656891
  0
LINE
  5
FD
330
1F
100
AcDbEntity
  8
0
 62
   253
100
AcDbLine
 10
121.28
 20
-0.820000000000324
 30
15.11052362656891
 11
50.26000000000004
 21
-0.8200000000003398
 31
15.11052362656891
  0
POLYLINE
  5
FE
330
1F
100
AcDbEntity
  8
0
 62
     0
100
AcDbPolyFaceMesh
 66
     1
 10
0.0
 20
0.0
 30
0.0
 70
    64
 71
     4
 72
     2
1001
ACAD_MATERIAL_MAPPER
1070
     1
1070
     1
1070
     1
1011
0.0
1021
0.0000000000000108
1031
-0.0000000000000346
1011
0.0
1021
-2.539999999999989
1031
-0.0000000000000692
1011
0.0
1021
0.0000000000000108
1031
2.539999999999966
1011
1.0
1021
0.0000000000000108
1031
-0.0000000000000346
  0
VERTEX
  5
FF
330
FE
100
AcDbEntity
  8
0
 62
     0
100
AcDbVertex
100
AcDbPolyFaceMeshVertex
 10
121.7599999999999
 20
-0.8200000000010811
 30
76.7999999999999
 70
   192
  0
VERTEX
  5
100
330
FE
100
AcDbEntity
  8
0
 62
     0
100
AcDbVertex
100
AcDbPolyFaceMeshVertex
 10
121.76
 20
-1.640000000000543
 30
25.11052362656889
 70
   192
  0
VERTEX
  5
101
330
FE
100
AcDbEntity
  8
0
 62
     0
100
AcDbVertex
100
AcDbPolyFaceMeshVertex
 10
121.76
 20
-1.640000000001034
 30
76.7999999999999
 70
   192
  0
VERTEX
  5
102
330
FE
100
AcDbEntity
  8
0
 62
     0
100
AcDbVertex
100
AcDbPolyFaceMeshVertex
 10
121.7599999999999
 20
-0.820000000000483
 30
25.11052362656891
 70
   192
  0
VERTEX
  5
103
330
FE
100
AcDbEntity
  8
0
 62
     0
100
AcDbFaceRecord
 10
0.0
 20
0.0
 30
0.0
 70
   128
 71
    -1
 72
     2
 73
     3
  0
VERTEX
  5
104
330
FE
100
AcDbEntity
  8
0
 62
     0
100
AcDbFaceRecord
 10
0.0
 20
0.0
 30
0.0
 70
   128
 71
    -2
 72
     1
 73
     4
  0
SEQEND
  5
105
330
FE
100
AcDbEntity
  8
0
 62
     0
  0
LINE
  5
106
330
1F
100
AcDbEntity
  8
0
 62
   253
100
AcDbLine
 10
121.76
 20
-1.640000000001034
 30
76.7999999999999
 11
121.76
 21
-1.640000000000543
 31
25.11052362656889
  0
LINE
  5
107
330
1F
100
AcDbEntity
  8
0
 62
     0
100
AcDbLine
 10
121.76
 20
-1.640000000001034
 30
76.7999999999999
 11
121.7599999999999
 21
-0.8200000000010811
 31
76.7999999999999
  0
LINE
  5
108
330
1F
100
AcDbEntity
  8
0
 62
   253
100
AcDbLine
 10
121.7599999999999
 20
-0.8200000000010811
 30
76.7999999999999
 11
121.7599999999999
 21
-0.820000000000483
 31
25.11052362656891
  0
LINE
  5
109
330
1F
100
AcDbEntity
  8
0
 62
     0
100
AcDbLine
 10
121.76
 20
-1.640000000000543
 30
25.11052362656889
 11
121.7599999999999
 21
-0.820000000000483
 31
25.11052362656891
  0
POLYLINE
  5
10A
330
1F
100
AcDbEntity
  8
0
 62
   253
100
AcDbPolyFaceMesh
 66
     1
 10
0.0
 20
0.0
 30
0.0
 70
    64
 71
     4
 72
     2
1001
ACAD_MATERIAL_MAPPER
1070
     1
1070
     1
1070
     1
1011
0.0
1021
0.0000000000000084
1031
0.0
1011
0.0
1021
-2.539999999999991
1031
0.0
1011
0.0
1021
0.0000000000000084
1031
2.54
1011
1.0
1021
0.0000000000000084
1031
0.0
  0
VERTEX
  5
10B
330
10A
100
AcDbEntity
  8
0
 62
   253
100
AcDbVertex
100
AcDbPolyFaceMeshVertex
 10
121.7599999999999
 20
-0.8200000000011503
 30
86.79999999999987
 70
   192
  0
VERTEX
  5
10C
330
10A
100
AcDbEntity
  8
0
 62
   253
100
AcDbVertex
100
AcDbPolyFaceMeshVertex
 10
121.76
 20
-1.640000000001034
 30
76.7999999999999
 70
   192
  0
VERTEX
  5
10D
330
10A
100
AcDbEntity
  8
0
 62
   253
100
AcDbVertex
100
AcDbPolyFaceMeshVertex
 10
121.76
 20
-1.640000000001203
 30
86.79999999999988
 70
   192
  0
VERTEX
  5
10E
330
10A
100
AcDbEntity
  8
0
 62
   253
100
AcDbVertex
100
AcDbPolyFaceMeshVertex
 10
121.7599999999999
 20
-0.8200000000010811
 30
76.7999999999999
 70
   192
  0
VERTEX
  5
10F
330
10A
100
AcDbEntity
  8
0
 62
   253
100
AcDbFaceRecord
 10
0.0
 20
0.0
 30
0.0
 70
   128
 71
    -1
 72
     2
 73
     3
  0
VERTEX
  5
110
330
10A
100
AcDbEntity
  8
0
 62
   253
100
AcDbFaceRecord
 10
0.0
 20
0.0
 30
0.0
 70
   128
 71
    -2
 72
     1
 73
     4
  0
SEQEND
  5
111
330
10A
100
AcDbEntity
  8
0
 62
   253
  0
LINE
  5
112
330
1F
100
AcDbEntity
  8
0
 62
   253
100
AcDbLine
 10
121.76
 20
-1.640000000001203
 30
86.79999999999988
 11
121.76
 21
-1.640000000001034
 31
76.7999999999999
  0
LINE
  5
113
330
1F
100
AcDbEntity
  8
0
 62
   253
100
AcDbLine
 10
121.7599999999999
 20
-0.8200000000011503
 30
86.79999999999987
 11
121.76
 21
-1.640000000001203
 31
86.79999999999988
  0
LINE
  5
114
330
1F
100
AcDbEntity
  8
0
 62
   253
100
AcDbLine
 10
121.7599999999999
 20
-0.8200000000011503
 30
86.79999999999987
 11
121.7599999999999
 21
-0.8200000000010811
 31
76.7999999999999
  0
LINE
  5
115
330
1F
100
AcDbEntity
  8
0
 62
     0
100
AcDbLine
 10
121.76
 20
-1.640000000001034
 30
76.7999999999999
 11
121.7599999999999
 21
-0.8200000000010811
 31
76.7999999999999
  0
POLYLINE
  5
116
330
1F
100
AcDbEntity
  8
0
 62
     0
100
AcDbPolyFaceMesh
 66
     1
 10
0.0
 20
0.0
 30
0.0
 70
    64
 71
     8
 72
     8
1001
ACAD_MATERIAL_MAPPER
1070
     1
1070
     1
1070
     1
1011
0.000000000000001
1021
0.0
1031
-0.0000000000000178
1011
2.540000000000001
1021
0.0
1031
-0.0000000000000178
1011
-0.0000000000000003
1021
0.0
1031
2.539999999999983
1011
0.000000000000001
1021
1.0
1031
-0.0000000000000178
  0
VERTEX
  5
117
330
116
100
AcDbEntity
  8
0
 62
     0
100
AcDbVertex
100
AcDbPolyFaceMeshVertex
 10
49.7799999999999
 20
-1.640000000000425
 30
15.11052362656889
 70
   192
  0
VERTEX
  5
118
330
116
100
AcDbEntity
  8
0
 62
     0
100
AcDbVertex
100
AcDbPolyFaceMeshVertex
 10
39.78000000000008
 20
-1.640000000000569
 30
25.11052362656889
 70
   192
  0
VERTEX
  5
119
330
116
100
AcDbEntity
  8
0
 62
     0
100
AcDbVertex
100
AcDbPolyFaceMeshVertex
 10
0.2399999999999451
 20
-1.640000000000349
 30
15.11052362656889
 70
   192
  0
VERTEX
  5
11A
330
116
100
AcDbEntity
  8
0
 62
     0
100
AcDbVertex
100
AcDbPolyFaceMeshVertex
 10
49.77999999999987
 20
-1.64000000000118
 30
86.79999999999984
 70
   192
  0
VERTEX
  5
11B
330
116
100
AcDbEntity
  8
0
 62
     0
100
AcDbVertex
100
AcDbPolyFaceMeshVertex
 10
39.78000000000009
 20
-1.640000000001073
 30
76.79999999999986
 70
   192
  0
VERTEX
  5
11C
330
116
100
AcDbEntity
  8
0
 62
     0
100
AcDbVertex
100
AcDbPolyFaceMeshVertex
 10
10.23999999999992
 20
-1.640000000000997
 30
76.79999999999986
 70
   192
  0
VERTEX
  5
11D
330
116
100
AcDbEntity
  8
0
 62
     0
100
AcDbVertex
100
AcDbPolyFaceMeshVertex
 10
10.23999999999991
 20
-1.640000000000529
 30
25.11052362656889
 70
   192
  0
VERTEX
  5
11E
330
116
100
AcDbEntity
  8
0
 62
     0
100
AcDbVertex
100
AcDbPolyFaceMeshVertex
 10
0.239999999999945
 20
-1.640000000001178
 30
86.79999999999984
 70
   192
  0
VERTEX
  5
11F
330
116
100
AcDbEntity
  8
0
 62
     0
100
AcDbFaceRecord
 10
0.0
 20
0.0
 30
0.0
 70
   128
 71
    -1
 72
    -2
 73
     3
  0
VERTEX
  5
120
330
116
100
AcDbEntity
  8
0
 62
     0
100
AcDbFaceRecord
 10
0.0
 20
0.0
 30
0.0
 70
   128
 71
    -2
 72
     1
 73
    -4
  0
VERTEX
  5
121
330
116
100
AcDbEntity
  8
0
 62
     0
100
AcDbFaceRecord
 10
0.0
 20
0.0
 30
0.0
 70
   128
 71
    -2
 72
    -4
 73
     5
  0
VERTEX
  5
122
330
116
100
AcDbEntity
  8
0
 62
     0
100
AcDbFaceRecord
 10
0.0
 20
0.0
 30
0.0
 70
   128
 71
    -5
 72
    -4
 73
     6
  0
VERTEX
  5
123
330
116
100
AcDbEntity
  8
0
 62
     0
100
AcDbFaceRecord
 10
0.0
 20
0.0
 30
0.0
 70
   128
 71
    -3
 72
    -7
 73
     8
  0
VERTEX
  5
124
330
116
100
AcDbEntity
  8
0
 62
     0
100
AcDbFaceRecord
 10
0.0
 20
0.0
 30
0.0
 70
   128
 71
    -7
 72
    -3
 73
     2
  0
VERTEX
  5
125
330
116
100
AcDbEntity
  8
0
 62
     0
100
AcDbFaceRecord
 10
0.0
 20
0.0
 30
0.0
 70
   128
 71
    -8
 72
     7
 73
    -6
  0
VERTEX
  5
126
330
116
100
AcDbEntity
  8
0
 62
     0
100
AcDbFaceRecord
 10
0.0
 20
0.0
 30
0.0
 70
   128
 71
    -8
 72
    -6
 73
     4
  0
SEQEND
  5
127
330
116
100
AcDbEntity
  8
0
 62
     0
  0
LINE
  5
128
330
1F
100
AcDbEntity
  8
0
 62
   253
100
AcDbLine
 10
49.7799999999999
 20
-1.640000000000425
 30
15.11052362656889
 11
0.2399999999999451
 21
-1.640000000000349
 31
15.11052362656889
  0
LINE
  5
129
330
1F
100
AcDbEntity
  8
0
 62
     0
100
AcDbLine
 10
49.77999999999987
 20
-1.64000000000118
 30
86.79999999999984
 11
49.7799999999999
 21
-1.640000000000425
 31
15.11052362656889
  0
LINE
  5
12A
330
1F
100
AcDbEntity
  8
0
 62
   253
100
AcDbLine
 10
0.239999999999945
 20
-1.640000000001178
 30
86.79999999999984
 11
49.77999999999987
 21
-1.64000000000118
 31
86.79999999999984
  0
LINE
  5
12B
330
1F
100
AcDbEntity
  8
0
 62
   253
100
AcDbLine
 10
0.2399999999999451
 20
-1.640000000000349
 30
15.11052362656889
 11
0.239999999999945
 21
-1.640000000001178
 31
86.79999999999984
  0
LINE
  5
12C
330
1F
100
AcDbEntity
  8
0
 62
   253
100
AcDbLine
 10
39.78000000000009
 20
-1.640000000001073
 30
76.79999999999986
 11
39.78000000000008
 21
-1.640000000000569
 31
25.11052362656889
  0
LINE
  5
12D
330
1F
100
AcDbEntity
  8
0
 62
   253
100
AcDbLine
 10
39.78000000000008
 20
-1.640000000000569
 30
25.11052362656889
 11
10.23999999999991
 21
-1.640000000000529
 31
25.11052362656889
  0
LINE
  5
12E
330
1F
100
AcDbEntity
  8
0
 62
   253
100
AcDbLine
 10
10.23999999999991
 20
-1.640000000000529
 30
25.11052362656889
 11
10.23999999999992
 21
-1.640000000000997
 31
76.79999999999986
  0
LINE
  5
12F
330
1F
100
AcDbEntity
  8
0
 62
   253
100
AcDbLine
 10
10.23999999999992
 20
-1.640000000000997
 30
76.79999999999986
 11
39.78000000000009
 21
-1.640000000001073
 31
76.79999999999986
  0
POLYLINE
  5
130
330
1F
100
AcDbEntity
  8
0
 62
   253
100
AcDbPolyFaceMesh
 66
     1
 10
0.0
 20
0.0
 30
0.0
 70
    64
 71
     4
 72
     2
1001
ACAD_MATERIAL_MAPPER
1070
     1
1070
     1
1070
     1
1011
0.0
1021
0.0000000000000056
1031
0.0000000000001789
1011
0.0
1021
2.540000000000006
1031
0.0000000000001789
1011
0.0
1021
0.0000000000000055
1031
2.540000000000182
1011
1.0
1021
0.0000000000000056
1031
0.0000000000001789
  0
VERTEX
  5
131
330
130
100
AcDbEntity
  8
0
 62
   253
100
AcDbVertex
100
AcDbPolyFaceMeshVertex
 10
121.2799999999998
 20
-1.640000000001082
 30
76.7999999999999
 70
   192
  0
VERTEX
  5
132
330
130
100
AcDbEntity
  8
0
 62
   253
100
AcDbVertex
100
AcDbPolyFaceMeshVertex
 10
121.2800000000001
 20
-0.820000000001084
 30
86.79999999999993
 70
   192
  0
VERTEX
  5
133
330
130
100
AcDbEntity
  8
0
 62
   253
100
AcDbVertex
100
AcDbPolyFaceMeshVertex
 10
121.2799999999999
 20
-1.640000000001211
 30
86.79999999999993
 70
   192
  0
VERTEX
  5
134
330
130
100
AcDbEntity
  8
0
 62
   253
100
AcDbVertex
100
AcDbPolyFaceMeshVertex
 10
121.28
 20
-0.8200000000009303
 30
76.79999999999991
 70
   192
  0
VERTEX
  5
135
330
130
100
AcDbEntity
  8
0
 62
   253
100
AcDbFaceRecord
 10
0.0
 20
0.0
 30
0.0
 70
   128
 71
    -1
 72
     2
 73
     3
  0
VERTEX
  5
136
330
130
100
AcDbEntity
  8
0
 62
   253
100
AcDbFaceRecord
 10
0.0
 20
0.0
 30
0.0
 70
   128
 71
    -2
 72
     1
 73
     4
  0
SEQEND
  5
137
330
130
100
AcDbEntity
  8
0
 62
   253
  0
LINE
  5
138
330
1F
100
AcDbEntity
  8
0
 62
   253
100
AcDbLine
 10
121.2799999999999
 20
-1.640000000001211
 30
86.79999999999993
 11
121.2799999999998
 21
-1.640000000001082
 31
76.7999999999999
  0
LINE
  5
139
330
1F
100
AcDbEntity
  8
0
 62
     0
100
AcDbLine
 10
121.2799999999998
 20
-1.640000000001082
 30
76.7999999999999
 11
121.28
 21
-0.8200000000009303
 31
76.79999999999991
  0
LINE
  5
13A
330
1F
100
AcDbEntity
  8
0
 62
   253
100
AcDbLine
 10
121.2800000000001
 20
-0.820000000001084
 30
86.79999999999993
 11
121.28
 21
-0.8200000000009303
 31
76.79999999999991
  0
LINE
  5
13B
330
1F
100
AcDbEntity
  8
0
 62
   253
100
AcDbLine
 10
121.2800000000001
 20
-0.820000000001084
 30
86.79999999999993
 11
121.2799999999999
 21
-1.640000000001211
 31
86.79999999999993
  0
POLYLINE
  5
13C
330
1F
100
AcDbEntity
  8
0
 62
     0
100
AcDbPolyFaceMesh
 66
     1
 10
0.0
 20
0.0
 30
0.0
 70
    64
 71
     4
 72
     2
1001
ACAD_MATERIAL_MAPPER
1070
     1
1070
     1
1070
     1
1011
0.0
1021
-0.0000000000004841
1031
0.0
1011
2.54
1021
-0.0000000000004841
1031
0.0
1011
-0.0000000000000736
1021
2.539999999999516
1031
0.0
1011
0.0
1021
-0.0000000000004841
1031
1.0
  0
VERTEX
  5
13D
330
13C
100
AcDbEntity
  8
0
 62
     0
100
AcDbVertex
100
AcDbPolyFaceMeshVertex
 10
131.76
 20
-1.640000000000473
 30
25.1105236265689
 70
   192
  0
VERTEX
  5
13E
330
13C
100
AcDbEntity
  8
0
 62
     0
100
AcDbVertex
100
AcDbPolyFaceMeshVertex
 10
180.3800000000004
 20
-0.8200000000004528
 30
25.11052362656891
 70
   192
  0
VERTEX
  5
13F
330
13C
100
AcDbEntity
  8
0
 62
     0
100
AcDbVertex
100
AcDbPolyFaceMeshVertex
 10
131.7599999999999
 20
-0.8200000000004475
 30
25.11052362656891
 70
   192
  0
VERTEX
  5
140
330
13C
100
AcDbEntity
  8
0
 62
     0
100
AcDbVertex
100
AcDbPolyFaceMeshVertex
 10
180.3800000000001
 20
-1.640000000000609
 30
25.11052362656889
 70
   192
  0
VERTEX
  5
141
330
13C
100
AcDbEntity
  8
0
 62
     0
100
AcDbFaceRecord
 10
0.0
 20
0.0
 30
0.0
 70
   128
 71
    -1
 72
     2
 73
     3
  0
VERTEX
  5
142
330
13C
100
AcDbEntity
  8
0
 62
     0
100
AcDbFaceRecord
 10
0.0
 20
0.0
 30
0.0
 70
   128
 71
    -2
 72
     1
 73
     4
  0
SEQEND
  5
143
330
13C
100
AcDbEntity
  8
0
 62
     0
  0
LINE
  5
144
330
1F
100
AcDbEntity
  8
0
 62
   253
100
AcDbLine
 10
180.3800000000001
 20
-1.640000000000609
 30
25.11052362656889
 11
131.76
 21
-1.640000000000473
 31
25.1105236265689
  0
LINE
  5
145
330
1F
100
AcDbEntity
  8
0
 62
     0
100
AcDbLine
 10
180.3800000000001
 20
-1.640000000000609
 30
25.11052362656889
 11
180.3800000000004
 21
-0.8200000000004528
 31
25.11052362656891
  0
LINE
  5
146
330
1F
100
AcDbEntity
  8
0
 62
   253
100
AcDbLine
 10
180.3800000000004
 20
-0.8200000000004528
 30
25.11052362656891
 11
131.7599999999999
 21
-0.8200000000004475
 31
25.11052362656891
  0
LINE
  5
147
330
1F
100
AcDbEntity
  8
0
 62
     0
100
AcDbLine
 10
131.76
 20
-1.640000000000473
 30
25.1105236265689
 11
131.7599999999999
 21
-0.8200000000004475
 31
25.11052362656891
  0
POLYLINE
  5
148
330
1F
100
AcDbEntity
  8
0
 62
     0
100
AcDbPolyFaceMesh
 66
     1
 10
0.0
 20
0.0
 30
0.0
 70
    64
 71
     8
 72
     8
1001
ACAD_MATERIAL_MAPPER
1070
     1
1070
     1
1070
     1
1011
-0.0000000000001362
1021
0.0
1031
-0.0000000000000255
1011
2.539999999999864
1021
0.0
1031
-0.0000000000000255
1011
-0.0000000000001309
1021
0.0
1031
2.539999999999975
1011
-0.0000000000001362
1021
1.0
1031
-0.0000000000000255
  0
VERTEX
  5
149
330
148
100
AcDbEntity
  8
0
 62
     0
100
AcDbVertex
100
AcDbPolyFaceMeshVertex
 10
259.78
 20
-1.640000000000525
 30
15.1105236265689
 70
   192
  0
VERTEX
  5
14A
330
148
100
AcDbEntity
  8
0
 62
     0
100
AcDbVertex
100
AcDbPolyFaceMeshVertex
 10
249.7799999999997
 20
-1.640000000000626
 30
25.11052362656891
 70
   192
  0
VERTEX
  5
14B
330
148
100
AcDbEntity
  8
0
 62
     0
100
AcDbVertex
100
AcDbPolyFaceMeshVertex
 10
190.8599999999998
 20
-1.640000000000497
 30
15.1105236265689
 70
   192
  0
VERTEX
  5
14C
330
148
100
AcDbEntity
  8
0
 62
     0
100
AcDbVertex
100
AcDbPolyFaceMeshVertex
 10
259.7799999999998
 20
-1.640000000001416
 30
86.79999999999988
 70
   192
  0
VERTEX
  5
14D
330
148
100
AcDbEntity
  8
0
 62
     0
100
AcDbVertex
100
AcDbPolyFaceMeshVertex
 10
249.7799999999998
 20
-1.640000000001277
 30
76.79999999999987
 70
   192
  0
VERTEX
  5
14E
330
148
100
AcDbEntity
  8
0
 62
     0
100
AcDbVertex
100
AcDbPolyFaceMeshVertex
 10
200.8600000000001
 20
-1.640000000001173
 30
76.79999999999987
 70
   192
  0
VERTEX
  5
14F
330
148
100
AcDbEntity
  8
0
 62
     0
100
AcDbVertex
100
AcDbPolyFaceMeshVertex
 10
200.86
 20
-1.640000000000589
 30
25.11052362656891
 70
   192
  0
VERTEX
  5
150
330
148
100
AcDbEntity
  8
0
 62
     0
100
AcDbVertex
100
AcDbPolyFaceMeshVertex
 10
190.8599999999998
 20
-1.640000000001244
 30
86.79999999999988
 70
   192
  0
VERTEX
  5
151
330
148
100
AcDbEntity
  8
0
 62
     0
100
AcDbFaceRecord
 10
0.0
 20
0.0
 30
0.0
 70
   128
 71
    -1
 72
    -2
 73
     3
  0
VERTEX
  5
152
330
148
100
AcDbEntity
  8
0
 62
     0
100
AcDbFaceRecord
 10
0.0
 20
0.0
 30
0.0
 70
   128
 71
    -2
 72
     1
 73
    -4
  0
VERTEX
  5
153
330
148
100
AcDbEntity
  8
0
 62
     0
100
AcDbFaceRecord
 10
0.0
 20
0.0
 30
0.0
 70
   128
 71
    -2
 72
    -4
 73
     5
  0
VERTEX
  5
154
330
148
100
AcDbEntity
  8
0
 62
     0
100
AcDbFaceRecord
 10
0.0
 20
0.0
 30
0.0
 70
   128
 71
    -5
 72
    -4
 73
     6
  0
VERTEX
  5
155
330
148
100
AcDbEntity
  8
0
 62
     0
100
AcDbFaceRecord
 10
0.0
 20
0.0
 30
0.0
 70
   128
 71
    -3
 72
    -7
 73
     8
  0
VERTEX
  5
156
330
148
100
AcDbEntity
  8
0
 62
     0
100
AcDbFaceRecord
 10
0.0
 20
0.0
 30
0.0
 70
   128
 71
    -7
 72
    -3
 73
     2
  0
VERTEX
  5
157
330
148
100
AcDbEntity
  8
0
 62
     0
100
AcDbFaceRecord
 10
0.0
 20
0.0
 30
0.0
 70
   128
 71
    -8
 72
     7
 73
    -6
  0
VERTEX
  5
158
330
148
100
AcDbEntity
  8
0
 62
     0
100
AcDbFaceRecord
 10
0.0
 20
0.0
 30
0.0
 70
   128
 71
    -8
 72
    -6
 73
     4
  0
SEQEND
  5
159
330
148
100
AcDbEntity
  8
0
 62
     0
  0
LINE
  5
15A
330
1F
100
AcDbEntity
  8
0
 62
   253
100
AcDbLine
 10
259.78
 20
-1.640000000000525
 30
15.1105236265689
 11
190.8599999999998
 21
-1.640000000000497
 31
15.1105236265689
  0
LINE
  5
15B
330
1F
100
AcDbEntity
  8
0
 62
   253
100
AcDbLine
 10
259.78
 20
-1.640000000000525
 30
15.1105236265689
 11
259.7799999999998
 21
-1.640000000001416
 31
86.79999999999988
  0
LINE
  5
15C
330
1F
100
AcDbEntity
  8
0
 62
   253
100
AcDbLine
 10
259.7799999999998
 20
-1.640000000001416
 30
86.79999999999988
 11
190.8599999999998
 21
-1.640000000001244
 31
86.79999999999988
  0
LINE
  5
15D
330
1F
100
AcDbEntity
  8
0
 62
   253
100
AcDbLine
 10
190.8599999999998
 20
-1.640000000001244
 30
86.79999999999988
 11
190.8599999999998
 21
-1.640000000000497
 31
15.1105236265689
  0
LINE
  5
15E
330
1F
100
AcDbEntity
  8
0
 62
   253
100
AcDbLine
 10
200.8600000000001
 20
-1.640000000001173
 30
76.79999999999987
 11
249.7799999999998
 21
-1.640000000001277
 31
76.79999999999987
  0
LINE
  5
15F
330
1F
100
AcDbEntity
  8
0
 62
   253
100
AcDbLine
 10
249.7799999999998
 20
-1.640000000001277
 30
76.79999999999987
 11
249.7799999999997
 21
-1.640000000000626
 31
25.11052362656891
  0
LINE
  5
160
330
1F
100
AcDbEntity
  8
0
 62
   253
100
AcDbLine
 10
249.7799999999997
 20
-1.640000000000626
 30
25.11052362656891
 11
200.86
 21
-1.640000000000589
 31
25.11052362656891
  0
LINE
  5
161
330
1F
100
AcDbEntity
  8
0
 62
     0
100
AcDbLine
 10
200.86
 20
-1.640000000000589
 30
25.11052362656891
 11
200.8600000000001
 21
-1.640000000001173
 31
76.79999999999987
  0
POLYLINE
  5
162
330
1F
100
AcDbEntity
  8
0
 62
     0
100
AcDbPolyFaceMesh
 66
     1
 10
0.0
 20
0.0
 30
0.0
 70
    64
 71
     4
 72
     2
1001
ACAD_MATERIAL_MAPPER
1070
     1
1070
     1
1070
     1
1011
0.0
1021
0.0000000000000162
1031
0.0
1011
0.0
1021
2.540000000000017
1031
0.0
1011
0.0
1021
0.0000000000000162
1031
2.54
1011
1.0
1021
0.0000000000000162
1031
0.0
  0
VERTEX
  5
163
330
162
100
AcDbEntity
  8
0
 62
     0
100
AcDbVertex
100
AcDbPolyFaceMeshVertex
 10
200.86
 20
-1.640000000000589
 30
25.11052362656891
 70
   192
  0
VERTEX
  5
164
330
162
100
AcDbEntity
  8
0
 62
     0
100
AcDbVertex
100
AcDbPolyFaceMeshVertex
 10
200.8600000000002
 20
-0.8200000000010397
 30
76.79999999999987
 70
   192
  0
VERTEX
  5
165
330
162
100
AcDbEntity
  8
0
 62
     0
100
AcDbVertex
100
AcDbPolyFaceMeshVertex
 10
200.8600000000001
 20
-1.640000000001173
 30
76.79999999999987
 70
   192
  0
VERTEX
  5
166
330
162
100
AcDbEntity
  8
0
 62
     0
100
AcDbVertex
100
AcDbPolyFaceMeshVertex
 10
200.86
 20
-0.8200000000004193
 30
25.11052362656891
 70
   192
  0
VERTEX
  5
167
330
162
100
AcDbEntity
  8
0
 62
     0
100
AcDbFaceRecord
 10
0.0
 20
0.0
 30
0.0
 70
   128
 71
    -1
 72
     2
 73
     3
  0
VERTEX
  5
168
330
162
100
AcDbEntity
  8
0
 62
     0
100
AcDbFaceRecord
 10
0.0
 20
0.0
 30
0.0
 70
   128
 71
    -2
 72
     1
 73
     4
  0
SEQEND
  5
169
330
162
100
AcDbEntity
  8
0
 62
     0
  0
LINE
  5
16A
330
1F
100
AcDbEntity
  8
0
 62
   253
100
AcDbLine
 10
200.86
 20
-0.8200000000004193
 30
25.11052362656891
 11
200.8600000000002
 21
-0.8200000000010397
 31
76.79999999999987
  0
LINE
  5
16B
330
1F
100
AcDbEntity
  8
0
 62
   253
100
AcDbLine
 10
200.8600000000002
 20
-0.8200000000010397
 30
76.79999999999987
 11
200.8600000000001
 21
-1.640000000001173
 31
76.79999999999987
  0
LINE
  5
16C
330
1F
100
AcDbEntity
  8
0
 62
     0
100
AcDbLine
 10
200.86
 20
-1.640000000000589
 30
25.11052362656891
 11
200.8600000000001
 21
-1.640000000001173
 31
76.79999999999987
  0
LINE
  5
16D
330
1F
100
AcDbEntity
  8
0
 62
   253
100
AcDbLine
 10
200.86
 20
-0.8200000000004193
 30
25.11052362656891
 11
200.86
 21
-1.640000000000589
 31
25.11052362656891
  0
POLYLINE
  5
16E
330
1F
100
AcDbEntity
  8
0
 62
     0
100
AcDbPolyFaceMesh
 66
     1
 10
0.0
 20
0.0
 30
0.0
 70
    64
 71
     4
 72
     2
1001
ACAD_MATERIAL_MAPPER
1070
     1
1070
     1
1070
     1
1011
0.0
1021
-0.000000000000415
1031
0.0
1011
2.540000000000004
1021
-0.000000000000415
1031
0.0
1011
0.0000000000001213
1021
2.539999999999587
1031
0.0
1011
0.0
1021
-0.000000000000415
1031
1.0
  0
VERTEX
  5
16F
330
16E
100
AcDbEntity
  8
0
 62
     0
100
AcDbVertex
100
AcDbPolyFaceMeshVertex
 10
270.2599999999998
 20
-1.640000000000758
 30
25.11052362656889
 70
   192
  0
VERTEX
  5
170
330
16E
100
AcDbEntity
  8
0
 62
     0
100
AcDbVertex
100
AcDbPolyFaceMeshVertex
 10
299.7599999999998
 20
-0.820000000000557
 30
25.1105236265689
 70
   192
  0
VERTEX
  5
171
330
16E
100
AcDbEntity
  8
0
 62
     0
100
AcDbVertex
100
AcDbPolyFaceMeshVertex
 10
270.2599999999998
 20
-0.8200000000006478
 30
25.1105236265689
 70
   192
  0
VERTEX
  5
172
330
16E
100
AcDbEntity
  8
0
 62
     0
100
AcDbVertex
100
AcDbPolyFaceMeshVertex
 10
299.7599999999997
 20
-1.640000000000596
 30
25.11052362656889
 70
   192
  0
VERTEX
  5
173
330
16E
100
AcDbEntity
  8
0
 62
     0
100
AcDbFaceRecord
 10
0.0
 20
0.0
 30
0.0
 70
   128
 71
    -1
 72
     2
 73
     3
  0
VERTEX
  5
174
330
16E
100
AcDbEntity
  8
0
 62
     0
100
AcDbFaceRecord
 10
0.0
 20
0.0
 30
0.0
 70
   128
 71
    -2
 72
     1
 73
     4
  0
SEQEND
  5
175
330
16E
100
AcDbEntity
  8
0
 62
     0
  0
LINE
  5
176
330
1F
100
AcDbEntity
  8
0
 62
   253
100
AcDbLine
 10
299.7599999999998
 20
-0.820000000000557
 30
25.1105236265689
 11
270.2599999999998
 21
-0.8200000000006478
 31
25.1105236265689
  0
LINE
  5
177
330
1F
100
AcDbEntity
  8
0
 62
   253
100
AcDbLine
 10
270.2599999999998
 20
-0.8200000000006478
 30
25.1105236265689
 11
270.2599999999998
 21
-1.640000000000758
 31
25.11052362656889
  0
LINE
  5
178
330
1F
100
AcDbEntity
  8
0
 62
   253
100
AcDbLine
 10
299.7599999999997
 20
-1.640000000000596
 30
25.11052362656889
 11
270.2599999999998
 21
-1.640000000000758
 31
25.11052362656889
  0
LINE
  5
179
330
1F
100
AcDbEntity
  8
0
 62
   253
100
AcDbLine
 10
299.7599999999998
 20
-0.820000000000557
 30
25.1105236265689
 11
299.7599999999997
 21
-1.640000000000596
 31
25.11052362656889
  0
POLYLINE
  5
17A
330
1F
100
AcDbEntity
  8
0
 62
     0
100
AcDbPolyFaceMesh
 66
     1
 10
0.0
 20
0.0
 30
0.0
 70
    64
 71
     4
 72
     2
1001
ACAD_MATERIAL_MAPPER
1070
     1
1070
     1
1070
     1
1011
0.0
1021
0.0000000000000097
1031
0.0000000000000346
1011
0.0
1021
2.540000000000009
1031
0.0000000000000346
1011
0.0
1021
0.0000000000000097
1031
2.540000000000034
1011
1.0
1021
0.0000000000000097
1031
0.0000000000000346
  0
VERTEX
  5
17B
330
17A
100
AcDbEntity
  8
0
 62
     0
100
AcDbVertex
100
AcDbPolyFaceMeshVertex
 10
121.28
 20
-1.640000000000519
 30
25.11052362656888
 70
   192
  0
VERTEX
  5
17C
330
17A
100
AcDbEntity
  8
0
 62
     0
100
AcDbVertex
100
AcDbPolyFaceMeshVertex
 10
121.28
 20
-0.8200000000009303
 30
76.79999999999991
 70
   192
  0
VERTEX
  5
17D
330
17A
100
AcDbEntity
  8
0
 62
     0
100
AcDbVertex
100
AcDbPolyFaceMeshVertex
 10
121.2799999999998
 20
-1.640000000001082
 30
76.7999999999999
 70
   192
  0
VERTEX
  5
17E
330
17A
100
AcDbEntity
  8
0
 62
     0
100
AcDbVertex
100
AcDbPolyFaceMeshVertex
 10
121.28
 20
-0.8200000000004715
 30
25.1105236265689
 70
   192
  0
VERTEX
  5
17F
330
17A
100
AcDbEntity
  8
0
 62
     0
100
AcDbFaceRecord
 10
0.0
 20
0.0
 30
0.0
 70
   128
 71
    -1
 72
     2
 73
     3
  0
VERTEX
  5
180
330
17A
100
AcDbEntity
  8
0
 62
     0
100
AcDbFaceRecord
 10
0.0
 20
0.0
 30
0.0
 70
   128
 71
    -2
 72
     1
 73
     4
  0
SEQEND
  5
181
330
17A
100
AcDbEntity
  8
0
 62
     0
  0
LINE
  5
182
330
1F
100
AcDbEntity
  8
0
 62
     0
100
AcDbLine
 10
121.2799999999998
 20
-1.640000000001082
 30
76.7999999999999
 11
121.28
 21
-0.8200000000009303
 31
76.79999999999991
  0
LINE
  5
183
330
1F
100
AcDbEntity
  8
0
 62
   253
100
AcDbLine
 10
121.2799999999998
 20
-1.640000000001082
 30
76.7999999999999
 11
121.28
 21
-1.640000000000519
 31
25.11052362656888
  0
LINE
  5
184
330
1F
100
AcDbEntity
  8
0
 62
     0
100
AcDbLine
 10
121.28
 20
-1.640000000000519
 30
25.11052362656888
 11
121.28
 21
-0.8200000000004715
 31
25.1105236265689
  0
LINE
  5
185
330
1F
100
AcDbEntity
  8
0
 62
   253
100
AcDbLine
 10
121.28
 20
-0.8200000000009303
 30
76.79999999999991
 11
121.28
 21
-0.8200000000004715
 31
25.1105236265689
  0
POLYLINE
  5
186
330
1F
100
AcDbEntity
  8
0
 62
   253
100
AcDbPolyFaceMesh
 66
     1
 10
0.0
 20
0.0
 30
0.0
 70
    64
 71
     6
 72
     4
1001
ACAD_MATERIAL_MAPPER
1070
     1
1070
     1
1070
     1
1011
0.0
1021
0.0000000000000098
1031
0.0000000000000894
1011
0.0
1021
-2.53999999999999
1031
0.0000000000000894
1011
0.0
1021
0.0000000000000098
1031
2.54000000000009
1011
1.0
1021
0.0000000000000098
1031
0.0000000000000894
  0
VERTEX
  5
187
330
186
100
AcDbEntity
  8
0
 62
   253
100
AcDbVertex
100
AcDbPolyFaceMeshVertex
 10
121.76
 20
-0.0000000000012047
 30
86.79999999999988
 70
   192
  0
VERTEX
  5
188
330
186
100
AcDbEntity
  8
0
 62
   253
100
AcDbVertex
100
AcDbPolyFaceMeshVertex
 10
121.7599999999999
 20
-0.8200000000010811
 30
76.7999999999999
 70
   192
  0
VERTEX
  5
189
330
186
100
AcDbEntity
  8
0
 62
   253
100
AcDbVertex
100
AcDbPolyFaceMeshVertex
 10
121.7599999999999
 20
-0.8200000000011503
 30
86.79999999999987
 70
   192
  0
VERTEX
  5
18A
330
186
100
AcDbEntity
  8
0
 62
   253
100
AcDbVertex
100
AcDbPolyFaceMeshVertex
 10
121.7599999999999
 20
-0.820000000000483
 30
25.11052362656891
 70
   192
  0
VERTEX
  5
18B
330
186
100
AcDbEntity
  8
0
 62
   253
100
AcDbVertex
100
AcDbPolyFaceMeshVertex
 10
121.76
 20
-0.820000000000379
 30
15.11052362656891
 70
   192
  0
VERTEX
  5
18C
330
186
100
AcDbEntity
  8
0
 62
   253
100
AcDbVertex
100
AcDbPolyFaceMeshVertex
 10
121.7599999999999
 20
-0.0000000000003012
 30
15.11052362656892
 70
   192
  0
VERTEX
  5
18D
330
186
100
AcDbEntity
  8
0
 62
   253
100
AcDbFaceRecord
 10
0.0
 20
0.0
 30
0.0
 70
   128
 71
    -1
 72
     2
 73
     3
  0
VERTEX
  5
18E
330
186
100
AcDbEntity
  8
0
 62
   253
100
AcDbFaceRecord
 10
0.0
 20
0.0
 30
0.0
 70
   128
 71
    -2
 72
    -1
 73
     4
  0
VERTEX
  5
18F
330
186
100
AcDbEntity
  8
0
 62
   253
100
AcDbFaceRecord
 10
0.0
 20
0.0
 30
0.0
 70
   128
 71
    -4
 72
    -1
 73
     5
  0
VERTEX
  5
190
330
186
100
AcDbEntity
  8
0
 62
   253
100
AcDbFaceRecord
 10
0.0
 20
0.0
 30
0.0
 70
   128
 71
    -5
 72
     1
 73
     6
  0
SEQEND
  5
191
330
186
100
AcDbEntity
  8
0
 62
   253
  0
LINE
  5
192
330
1F
100
AcDbEntity
  8
0
 62
   253
100
AcDbLine
 10
121.76
 20
-0.0000000000012047
 30
86.79999999999988
 11
121.7599999999999
 21
-0.0000000000003012
 31
15.11052362656892
  0
LINE
  5
193
330
1F
100
AcDbEntity
  8
0
 62
   253
100
AcDbLine
 10
121.7599999999999
 20
-0.0000000000003012
 30
15.11052362656892
 11
121.76
 21
-0.820000000000379
 31
15.11052362656891
  0
LINE
  5
194
330
1F
100
AcDbEntity
  8
0
 62
   253
100
AcDbLine
 10
121.7599999999999
 20
-0.820000000000483
 30
25.11052362656891
 11
121.76
 21
-0.820000000000379
 31
15.11052362656891
  0
LINE
  5
195
330
1F
100
AcDbEntity
  8
0
 62
   253
100
AcDbLine
 10
121.7599999999999
 20
-0.8200000000010811
 30
76.7999999999999
 11
121.7599999999999
 21
-0.820000000000483
 31
25.11052362656891
  0
LINE
  5
196
330
1F
100
AcDbEntity
  8
0
 62
   253
100
AcDbLine
 10
121.7599999999999
 20
-0.8200000000011503
 30
86.79999999999987
 11
121.7599999999999
 21
-0.8200000000010811
 31
76.7999999999999
  0
LINE
  5
197
330
1F
100
AcDbEntity
  8
0
 62
   253
100
AcDbLine
 10
121.76
 20
-0.0000000000012047
 30
86.79999999999988
 11
121.7599999999999
 21
-0.8200000000011503
 31
86.79999999999987
  0
POLYLINE
  5
198
330
1F
100
AcDbEntity
  8
0
 62
     0
100
AcDbPolyFaceMesh
 66
     1
 10
0.0
 20
0.0
 30
0.0
 70
    64
 71
     4
 72
     2
1001
ACAD_MATERIAL_MAPPER
1070
     1
1070
     1
1070
     1
1011
-0.0000000000244487
1021
0.0
1031
-0.0000000000146692
1011
2.539999999975533
1021
0.0
1031
-0.0000000000146692
1011
-0.0000000000244487
1021
0.0
1031
2.539999999985347
1011
-0.0000000000244487
1021
1.0
1031
-0.0000000000146692
  0
VERTEX
  5
199
330
198
100
AcDbEntity
  8
0
 62
     0
100
AcDbVertex
100
AcDbPolyFaceMeshVertex
 10
121.76
 20
-1.640000000001203
 30
86.79999999999988
 70
   192
  0
VERTEX
  5
19A
330
198
100
AcDbEntity
  8
0
 62
     0
100
AcDbVertex
100
AcDbPolyFaceMeshVertex
 10
121.2799999999998
 20
-1.640000000001082
 30
76.7999999999999
 70
   192
  0
VERTEX
  5
19B
330
198
100
AcDbEntity
  8
0
 62
     0
100
AcDbVertex
100
AcDbPolyFaceMeshVertex
 10
121.76
 20
-1.640000000001034
 30
76.7999999999999
 70
   192
  0
VERTEX
  5
19C
330
198
100
AcDbEntity
  8
0
 62
     0
100
AcDbVertex
100
AcDbPolyFaceMeshVertex
 10
121.2799999999999
 20
-1.640000000001211
 30
86.79999999999993
 70
   192
  0
VERTEX
  5
19D
330
198
100
AcDbEntity
  8
0
 62
     0
100
AcDbFaceRecord
 10
0.0
 20
0.0
 30
0.0
 70
   128
 71
    -1
 72
     2
 73
     3
  0
VERTEX
  5
19E
330
198
100
AcDbEntity
  8
0
 62
     0
100
AcDbFaceRecord
 10
0.0
 20
0.0
 30
0.0
 70
   128
 71
    -2
 72
     1
 73
     4
  0
SEQEND
  5
19F
330
198
100
AcDbEntity
  8
0
 62
     0
  0
LINE
  5
1A0
330
1F
100
AcDbEntity
  8
0
 62
   253
100
AcDbLine
 10
121.2799999999998
 20
-1.640000000001082
 30
76.7999999999999
 11
121.76
 21
-1.640000000001034
 31
76.7999999999999
  0
LINE
  5
1A1
330
1F
100
AcDbEntity
  8
0
 62
   253
100
AcDbLine
 10
121.76
 20
-1.640000000001203
 30
86.79999999999988
 11
121.76
 21
-1.640000000001034
 31
76.7999999999999
  0
LINE
  5
1A2
330
1F
100
AcDbEntity
  8
0
 62
   253
100
AcDbLine
 10
121.2799999999999
 20
-1.640000000001211
 30
86.79999999999993
 11
121.76
 21
-1.640000000001203
 31
86.79999999999988
  0
LINE
  5
1A3
330
1F
100
AcDbEntity
  8
0
 62
   253
100
AcDbLine
 10
121.2799999999999
 20
-1.640000000001211
 30
86.79999999999993
 11
121.2799999999998
 21
-1.640000000001082
 31
76.7999999999999
  0
POLYLINE
  5
1A4
330
1F
100
AcDbEntity
  8
0
 62
     0
100
AcDbPolyFaceMesh
 66
     1
 10
0.0
 20
0.0
 30
0.0
 70
    64
 71
     4
 72
     2
1001
ACAD_MATERIAL_MAPPER
1070
     1
1070
     1
1070
     1
1011
0.0
1021
0.0
1031
0.0000000000006112
1011
2.540000000000009
1021
0.0
1031
0.0000000000006112
1011
-0.0000000000000048
1021
0.0
1031
2.540000000000638
1011
0.0
1021
1.0
1031
0.0000000000006112
  0
VERTEX
  5
1A5
330
1A4
100
AcDbEntity
  8
0
 62
     0
100
AcDbVertex
100
AcDbPolyFaceMeshVertex
 10
121.76
 20
-1.640000000000398
 30
15.1105236265689
 70
   192
  0
VERTEX
  5
1A6
330
1A4
100
AcDbEntity
  8
0
 62
     0
100
AcDbVertex
100
AcDbPolyFaceMeshVertex
 10
121.28
 20
-1.640000000000519
 30
25.11052362656888
 70
   192
  0
VERTEX
  5
1A7
330
1A4
100
AcDbEntity
  8
0
 62
     0
100
AcDbVertex
100
AcDbPolyFaceMeshVertex
 10
121.2799999999999
 20
-1.640000000000406
 30
15.11052362656889
 70
   192
  0
VERTEX
  5
1A8
330
1A4
100
AcDbEntity
  8
0
 62
     0
100
AcDbVertex
100
AcDbPolyFaceMeshVertex
 10
121.76
 20
-1.640000000000543
 30
25.11052362656889
 70
   192
  0
VERTEX
  5
1A9
330
1A4
100
AcDbEntity
  8
0
 62
     0
100
AcDbFaceRecord
 10
0.0
 20
0.0
 30
0.0
 70
   128
 71
    -1
 72
     2
 73
     3
  0
VERTEX
  5
1AA
330
1A4
100
AcDbEntity
  8
0
 62
     0
100
AcDbFaceRecord
 10
0.0
 20
0.0
 30
0.0
 70
   128
 71
    -2
 72
     1
 73
     4
  0
SEQEND
  5
1AB
330
1A4
100
AcDbEntity
  8
0
 62
     0
  0
LINE
  5
1AC
330
1F
100
AcDbEntity
  8
0
 62
   253
100
AcDbLine
 10
121.76
 20
-1.640000000000398
 30
15.1105236265689
 11
121.2799999999999
 21
-1.640000000000406
 31
15.11052362656889
  0
LINE
  5
1AD
330
1F
100
AcDbEntity
  8
0
 62
   253
100
AcDbLine
 10
121.76
 20
-1.640000000000543
 30
25.11052362656889
 11
121.76
 21
-1.640000000000398
 31
15.1105236265689
  0
LINE
  5
1AE
330
1F
100
AcDbEntity
  8
0
 62
   253
100
AcDbLine
 10
121.76
 20
-1.640000000000543
 30
25.11052362656889
 11
121.28
 21
-1.640000000000519
 31
25.11052362656888
  0
LINE
  5
1AF
330
1F
100
AcDbEntity
  8
0
 62
   253
100
AcDbLine
 10
121.28
 20
-1.640000000000519
 30
25.11052362656888
 11
121.2799999999999
 21
-1.640000000000406
 31
15.11052362656889
  0
POLYLINE
  5
1B0
330
1F
100
AcDbEntity
  8
0
 62
     0
100
AcDbPolyFaceMesh
 66
     1
 10
0.0
 20
0.0
 30
0.0
 70
    64
 71
     4
 72
     2
1001
ACAD_MATERIAL_MAPPER
1070
     1
1070
     1
1070
     1
1011
0.0
1021
0.0000000000000195
1031
0.0000000000000346
1011
0.0
1021
-2.53999999999998
1031
0.0000000000000346
1011
0.0
1021
0.0000000000000195
1031
2.540000000000035
1011
1.0
1021
0.0000000000000195
1031
0.0000000000000346
  0
VERTEX
  5
1B1
330
1B0
100
AcDbEntity
  8
0
 62
     0
100
AcDbVertex
100
AcDbPolyFaceMeshVertex
 10
249.78
 20
-0.820000000001056
 30
76.79999999999987
 70
   192
  0
VERTEX
  5
1B2
330
1B0
100
AcDbEntity
  8
0
 62
     0
100
AcDbVertex
100
AcDbPolyFaceMeshVertex
 10
249.7799999999997
 20
-1.640000000000626
 30
25.11052362656891
 70
   192
  0
VERTEX
  5
1B3
330
1B0
100
AcDbEntity
  8
0
 62
     0
100
AcDbVertex
100
AcDbPolyFaceMeshVertex
 10
249.7799999999998
 20
-1.640000000001277
 30
76.79999999999987
 70
   192
  0
VERTEX
  5
1B4
330
1B0
100
AcDbEntity
  8
0
 62
     0
100
AcDbVertex
100
AcDbPolyFaceMeshVertex
 10
249.7799999999998
 20
-0.8200000000005006
 30
25.11052362656891
 70
   192
  0
VERTEX
  5
1B5
330
1B0
100
AcDbEntity
  8
0
 62
     0
100
AcDbFaceRecord
 10
0.0
 20
0.0
 30
0.0
 70
   128
 71
    -1
 72
     2
 73
     3
  0
VERTEX
  5
1B6
330
1B0
100
AcDbEntity
  8
0
 62
     0
100
AcDbFaceRecord
 10
0.0
 20
0.0
 30
0.0
 70
   128
 71
    -2
 72
     1
 73
     4
  0
SEQEND
  5
1B7
330
1B0
100
AcDbEntity
  8
0
 62
     0
  0
LINE
  5
1B8
330
1F
100
AcDbEntity
  8
0
 62
   253
100
AcDbLine
 10
249.78
 20
-0.820000000001056
 30
76.79999999999987
 11
249.7799999999998
 21
-0.8200000000005006
 31
25.11052362656891
  0
LINE
  5
1B9
330
1F
100
AcDbEntity
  8
0
 62
   253
100
AcDbLine
 10
249.7799999999998
 20
-0.8200000000005006
 30
25.11052362656891
 11
249.7799999999997
 21
-1.640000000000626
 31
25.11052362656891
  0
LINE
  5
1BA
330
1F
100
AcDbEntity
  8
0
 62
   253
100
AcDbLine
 10
249.7799999999998
 20
-1.640000000001277
 30
76.79999999999987
 11
249.7799999999997
 21
-1.640000000000626
 31
25.11052362656891
  0
LINE
  5
1BB
330
1F
100
AcDbEntity
  8
0
 62
   253
100
AcDbLine
 10
249.78
 20
-0.820000000001056
 30
76.79999999999987
 11
249.7799999999998
 21
-1.640000000001277
 31
76.79999999999987
  0
POLYLINE
  5
1BC
330
1F
100
AcDbEntity
  8
0
 62
     0
100
AcDbPolyFaceMesh
 66
     1
 10
0.0
 20
0.0
 30
0.0
 70
    64
 71
     4
 72
     2
1001
ACAD_MATERIAL_MAPPER
1070
     1
1070
     1
1070
     1
1011
0.0
1021
0.0000000000000092
1031
-0.0000000000000346
1011
0.0
1021
-2.539999999999992
1031
-0.0000000000000346
1011
0.0
1021
0.0000000000000092
1031
2.539999999999966
1011
1.0
1021
0.0000000000000092
1031
-0.0000000000000346
  0
VERTEX
  5
1BD
330
1BC
100
AcDbEntity
  8
0
 62
     0
100
AcDbVertex
100
AcDbPolyFaceMeshVertex
 10
111.2800000000001
 20
-0.8200000000009695
 30
76.79999999999991
 70
   192
  0
VERTEX
  5
1BE
330
1BC
100
AcDbEntity
  8
0
 62
     0
100
AcDbVertex
100
AcDbPolyFaceMeshVertex
 10
111.2800000000002
 20
-1.64000000000064
 30
25.11052362656888
 70
   192
  0
VERTEX
  5
1BF
330
1BC
100
AcDbEntity
  8
0
 62
     0
100
AcDbVertex
100
AcDbPolyFaceMeshVertex
 10
111.2800000000003
 20
-1.640000000001117
 30
76.7999999999999
 70
   192
  0
VERTEX
  5
1C0
330
1BC
100
AcDbEntity
  8
0
 62
     0
100
AcDbVertex
100
AcDbPolyFaceMeshVertex
 10
111.2800000000001
 20
-0.8200000000004852
 30
25.11052362656891
 70
   192
  0
VERTEX
  5
1C1
330
1BC
100
AcDbEntity
  8
0
 62
     0
100
AcDbFaceRecord
 10
0.0
 20
0.0
 30
0.0
 70
   128
 71
    -1
 72
     2
 73
     3
  0
VERTEX
  5
1C2
330
1BC
100
AcDbEntity
  8
0
 62
     0
100
AcDbFaceRecord
 10
0.0
 20
0.0
 30
0.0
 70
   128
 71
    -2
 72
     1
 73
     4
  0
SEQEND
  5
1C3
330
1BC
100
AcDbEntity
  8
0
 62
     0
  0
LINE
  5
1C4
330
1F
100
AcDbEntity
  8
0
 62
   253
100
AcDbLine
 10
111.2800000000001
 20
-0.8200000000009695
 30
76.79999999999991
 11
111.2800000000001
 21
-0.8200000000004852
 31
25.11052362656891
  0
LINE
  5
1C5
330
1F
100
AcDbEntity
  8
0
 62
     0
100
AcDbLine
 10
111.2800000000002
 20
-1.64000000000064
 30
25.11052362656888
 11
111.2800000000001
 21
-0.8200000000004852
 31
25.11052362656891
  0
LINE
  5
1C6
330
1F
100
AcDbEntity
  8
0
 62
   253
100
AcDbLine
 10
111.2800000000003
 20
-1.640000000001117
 30
76.7999999999999
 11
111.2800000000002
 21
-1.64000000000064
 31
25.11052362656888
  0
LINE
  5
1C7
330
1F
100
AcDbEntity
  8
0
 62
     0
100
AcDbLine
 10
111.2800000000003
 20
-1.640000000001117
 30
76.7999999999999
 11
111.2800000000001
 21
-0.8200000000009695
 31
76.79999999999991
  0
POLYLINE
  5
1C8
330
1F
100
AcDbEntity
  8
0
 62
     0
100
AcDbPolyFaceMesh
 66
     1
 10
0.0
 20
0.0
 30
0.0
 70
    64
 71
     4
 72
     2
1001
ACAD_MATERIAL_MAPPER
1070
     1
1070
     1
1070
     1
1011
0.0000000000000131
1021
-0.0000000000007602
1031
0.0
1011
2.540000000000013
1021
-0.0000000000007602
1031
0.0
1011
0.0000000000000131
1021
2.53999999999924
1031
0.0
1011
0.0000000000000131
1021
-0.0000000000007602
1031
1.0
  0
VERTEX
  5
1C9
330
1C8
100
AcDbEntity
  8
0
 62
     0
100
AcDbVertex
100
AcDbPolyFaceMeshVertex
 10
111.2800000000002
 20
-1.64000000000064
 30
25.11052362656888
 70
   192
  0
VERTEX
  5
1CA
330
1C8
100
AcDbEntity
  8
0
 62
     0
100
AcDbVertex
100
AcDbPolyFaceMeshVertex
 10
60.2600000000001
 20
-0.8200000000004671
 30
25.11052362656891
 70
   192
  0
VERTEX
  5
1CB
330
1C8
100
AcDbEntity
  8
0
 62
     0
100
AcDbVertex
100
AcDbPolyFaceMeshVertex
 10
60.26000000000001
 20
-1.640000000000539
 30
25.11052362656889
 70
   192
  0
VERTEX
  5
1CC
330
1C8
100
AcDbEntity
  8
0
 62
     0
100
AcDbVertex
100
AcDbPolyFaceMeshVertex
 10
111.2800000000001
 20
-0.8200000000004852
 30
25.11052362656891
 70
   192
  0
VERTEX
  5
1CD
330
1C8
100
AcDbEntity
  8
0
 62
     0
100
AcDbFaceRecord
 10
0.0
 20
0.0
 30
0.0
 70
   128
 71
    -1
 72
     2
 73
     3
  0
VERTEX
  5
1CE
330
1C8
100
AcDbEntity
  8
0
 62
     0
100
AcDbFaceRecord
 10
0.0
 20
0.0
 30
0.0
 70
   128
 71
    -2
 72
     1
 73
     4
  0
SEQEND
  5
1CF
330
1C8
100
AcDbEntity
  8
0
 62
     0
  0
LINE
  5
1D0
330
1F
100
AcDbEntity
  8
0
 62
   253
100
AcDbLine
 10
111.2800000000001
 20
-0.8200000000004852
 30
25.11052362656891
 11
60.2600000000001
 21
-0.8200000000004671
 31
25.11052362656891
  0
LINE
  5
1D1
330
1F
100
AcDbEntity
  8
0
 62
     0
100
AcDbLine
 10
60.26000000000001
 20
-1.640000000000539
 30
25.11052362656889
 11
60.2600000000001
 21
-0.8200000000004671
 31
25.11052362656891
  0
LINE
  5
1D2
330
1F
100
AcDbEntity
  8
0
 62
   253
100
AcDbLine
 10
111.2800000000002
 20
-1.64000000000064
 30
25.11052362656888
 11
60.26000000000001
 21
-1.640000000000539
 31
25.11052362656889
  0
LINE
  5
1D3
330
1F
100
AcDbEntity
  8
0
 62
     0
100
AcDbLine
 10
111.2800000000002
 20
-1.64000000000064
 30
25.11052362656888
 11
111.2800000000001
 21
-0.8200000000004852
 31
25.11052362656891
  0
POLYLINE
  5
1D4
330
1F
100
AcDbEntity
  8
0
 62
     0
100
AcDbPolyFaceMesh
 66
     1
 10
0.0
 20
0.0
 30
0.0
 70
    64
 71
     4
 72
     2
1001
ACAD_MATERIAL_MAPPER
1070
     1
1070
     1
1070
     1
1011
0.0
1021
0.0000000000000216
1031
0.0
1011
0.0
1021
2.540000000000022
1031
0.0
1011
0.0
1021
0.0000000000000216
1031
2.54
1011
1.0
1021
0.0000000000000216
1031
0.0
  0
VERTEX
  5
1D5
330
1D4
100
AcDbEntity
  8
0
 62
     0
100
AcDbVertex
100
AcDbPolyFaceMeshVertex
 10
270.2599999999998
 20
-1.640000000000758
 30
25.11052362656889
 70
   192
  0
VERTEX
  5
1D6
330
1D4
100
AcDbEntity
  8
0
 62
     0
100
AcDbVertex
100
AcDbPolyFaceMeshVertex
 10
270.2599999999999
 20
-0.8200000000011756
 30
76.7999999999999
 70
   192
  0
VERTEX
  5
1D7
330
1D4
100
AcDbEntity
  8
0
 62
     0
100
AcDbVertex
100
AcDbPolyFaceMeshVertex
 10
270.26
 20
-1.64000000000126
 30
76.79999999999988
 70
   192
  0
VERTEX
  5
1D8
330
1D4
100
AcDbEntity
  8
0
 62
     0
100
AcDbVertex
100
AcDbPolyFaceMeshVertex
 10
270.2599999999998
 20
-0.8200000000006478
 30
25.1105236265689
 70
   192
  0
VERTEX
  5
1D9
330
1D4
100
AcDbEntity
  8
0
 62
     0
100
AcDbFaceRecord
 10
0.0
 20
0.0
 30
0.0
 70
   128
 71
    -1
 72
     2
 73
     3
  0
VERTEX
  5
1DA
330
1D4
100
AcDbEntity
  8
0
 62
     0
100
AcDbFaceRecord
 10
0.0
 20
0.0
 30
0.0
 70
   128
 71
    -2
 72
     1
 73
     4
  0
SEQEND
  5
1DB
330
1D4
100
AcDbEntity
  8
0
 62
     0
  0
LINE
  5
1DC
330
1F
100
AcDbEntity
  8
0
 62
   253
100
AcDbLine
 10
270.2599999999998
 20
-0.8200000000006478
 30
25.1105236265689
 11
270.2599999999999
 21
-0.8200000000011756
 31
76.7999999999999
  0
LINE
  5
1DD
330
1F
100
AcDbEntity
  8
0
 62
   253
100
AcDbLine
 10
270.2599999999999
 20
-0.8200000000011756
 30
76.7999999999999
 11
270.26
 21
-1.64000000000126
 31
76.79999999999988
  0
LINE
  5
1DE
330
1F
100
AcDbEntity
  8
0
 62
   253
100
AcDbLine
 10
270.2599999999998
 20
-1.640000000000758
 30
25.11052362656889
 11
270.26
 21
-1.64000000000126
 31
76.79999999999988
  0
LINE
  5
1DF
330
1F
100
AcDbEntity
  8
0
 62
   253
100
AcDbLine
 10
270.2599999999998
 20
-0.8200000000006478
 30
25.1105236265689
 11
270.2599999999998
 21
-1.640000000000758
 31
25.11052362656889
  0
POLYLINE
  5
1E0
330
1F
100
AcDbEntity
  8
0
 62
     0
100
AcDbPolyFaceMesh
 66
     1
 10
0.0
 20
0.0
 30
0.0
 70
    64
 71
     4
 72
     2
1001
ACAD_MATERIAL_MAPPER
1070
     1
1070
     1
1070
     1
1011
0.0
1021
0.0000000000000054
1031
0.0
1011
0.0
1021
2.540000000000005
1031
0.0
1011
0.0
1021
0.0000000000000054
1031
2.54
1011
1.0
1021
0.0000000000000054
1031
0.0
  0
VERTEX
  5
1E1
330
1E0
100
AcDbEntity
  8
0
 62
     0
100
AcDbVertex
100
AcDbPolyFaceMeshVertex
 10
60.26000000000001
 20
-1.640000000000539
 30
25.11052362656889
 70
   192
  0
VERTEX
  5
1E2
330
1E0
100
AcDbEntity
  8
0
 62
     0
100
AcDbVertex
100
AcDbPolyFaceMeshVertex
 10
60.2600000000001
 20
-0.8200000000009517
 30
76.79999999999991
 70
   192
  0
VERTEX
  5
1E3
330
1E0
100
AcDbEntity
  8
0
 62
     0
100
AcDbVertex
100
AcDbPolyFaceMeshVertex
 10
60.26000000000004
 20
-1.640000000001056
 30
76.7999999999999
 70
   192
  0
VERTEX
  5
1E4
330
1E0
100
AcDbEntity
  8
0
 62
     0
100
AcDbVertex
100
AcDbPolyFaceMeshVertex
 10
60.2600000000001
 20
-0.8200000000004671
 30
25.11052362656891
 70
   192
  0
VERTEX
  5
1E5
330
1E0
100
AcDbEntity
  8
0
 62
     0
100
AcDbFaceRecord
 10
0.0
 20
0.0
 30
0.0
 70
   128
 71
    -1
 72
     2
 73
     3
  0
VERTEX
  5
1E6
330
1E0
100
AcDbEntity
  8
0
 62
     0
100
AcDbFaceRecord
 10
0.0
 20
0.0
 30
0.0
 70
   128
 71
    -2
 72
     1
 73
     4
  0
SEQEND
  5
1E7
330
1E0
100
AcDbEntity
  8
0
 62
     0
  0
LINE
  5
1E8
330
1F
100
AcDbEntity
  8
0
 62
   253
100
AcDbLine
 10
60.2600000000001
 20
-0.8200000000004671
 30
25.11052362656891
 11
60.2600000000001
 21
-0.8200000000009517
 31
76.79999999999991
  0
LINE
  5
1E9
330
1F
100
AcDbEntity
  8
0
 62
     0
100
AcDbLine
 10
60.26000000000004
 20
-1.640000000001056
 30
76.7999999999999
 11
60.2600000000001
 21
-0.8200000000009517
 31
76.79999999999991
  0
LINE
  5
1EA
330
1F
100
AcDbEntity
  8
0
 62
   253
100
AcDbLine
 10
60.26000000000001
 20
-1.640000000000539
 30
25.11052362656889
 11
60.26000000000004
 21
-1.640000000001056
 31
76.7999999999999
  0
LINE
  5
1EB
330
1F
100
AcDbEntity
  8
0
 62
     0
100
AcDbLine
 10
60.26000000000001
 20
-1.640000000000539
 30
25.11052362656889
 11
60.2600000000001
 21
-0.8200000000004671
 31
25.11052362656891
  0
POLYLINE
  5
1EC
330
1F
100
AcDbEntity
  8
0
 62
     0
100
AcDbPolyFaceMesh
 66
     1
 10
0.0
 20
0.0
 30
0.0
 70
    64
 71
     4
 72
     2
1001
ACAD_MATERIAL_MAPPER
1070
     1
1070
     1
1070
     1
1011
0.0
1021
-0.0000000000004142
1031
0.0
1011
2.54
1021
-0.0000000000004142
1031
0.0
1011
0.0
1021
2.539999999999585
1031
0.0
1011
0.0
1021
-0.0000000000004142
1031
1.0
  0
VERTEX
  5
1ED
330
1EC
100
AcDbEntity
  8
0
 62
     0
100
AcDbVertex
100
AcDbPolyFaceMeshVertex
 10
10.23999999999991
 20
-1.640000000000529
 30
25.11052362656889
 70
   192
  0
VERTEX
  5
1EE
330
1EC
100
AcDbEntity
  8
0
 62
     0
100
AcDbVertex
100
AcDbPolyFaceMeshVertex
 10
39.78000000000009
 20
-0.820000000000388
 30
25.11052362656891
 70
   192
  0
VERTEX
  5
1EF
330
1EC
100
AcDbEntity
  8
0
 62
     0
100
AcDbVertex
100
AcDbPolyFaceMeshVertex
 10
10.23999999999991
 20
-0.8200000000003895
 30
25.11052362656891
 70
   192
  0
VERTEX
  5
1F0
330
1EC
100
AcDbEntity
  8
0
 62
     0
100
AcDbVertex
100
AcDbPolyFaceMeshVertex
 10
39.78000000000008
 20
-1.640000000000569
 30
25.11052362656889
 70
   192
  0
VERTEX
  5
1F1
330
1EC
100
AcDbEntity
  8
0
 62
     0
100
AcDbFaceRecord
 10
0.0
 20
0.0
 30
0.0
 70
   128
 71
    -1
 72
     2
 73
     3
  0
VERTEX
  5
1F2
330
1EC
100
AcDbEntity
  8
0
 62
     0
100
AcDbFaceRecord
 10
0.0
 20
0.0
 30
0.0
 70
   128
 71
    -2
 72
     1
 73
     4
  0
SEQEND
  5
1F3
330
1EC
100
AcDbEntity
  8
0
 62
     0
  0
LINE
  5
1F4
330
1F
100
AcDbEntity
  8
0
 62
   253
100
AcDbLine
 10
39.78000000000009
 20
-0.820000000000388
 30
25.11052362656891
 11
10.23999999999991
 21
-0.8200000000003895
 31
25.11052362656891
  0
LINE
  5
1F5
330
1F
100
AcDbEntity
  8
0
 62
   253
100
AcDbLine
 10
10.23999999999991
 20
-0.8200000000003895
 30
25.11052362656891
 11
10.23999999999991
 21
-1.640000000000529
 31
25.11052362656889
  0
LINE
  5
1F6
330
1F
100
AcDbEntity
  8
0
 62
   253
100
AcDbLine
 10
39.78000000000008
 20
-1.640000000000569
 30
25.11052362656889
 11
10.23999999999991
 21
-1.640000000000529
 31
25.11052362656889
  0
LINE
  5
1F7
330
1F
100
AcDbEntity
  8
0
 62
   253
100
AcDbLine
 10
39.78000000000009
 20
-0.820000000000388
 30
25.11052362656891
 11
39.78000000000008
 21
-1.640000000000569
 31
25.11052362656889
  0
POLYLINE
  5
1F8
330
1F
100
AcDbEntity
  8
0
 62
     0
100
AcDbPolyFaceMesh
 66
     1
 10
0.0
 20
0.0
 30
0.0
 70
    64
 71
     4
 72
     2
1001
ACAD_MATERIAL_MAPPER
1070
     1
1070
     1
1070
     1
1011
-0.0000000000001472
1021
-0.0000000000008445
1031
0.0
1011
-2.540000000000146
1021
-0.0000000000008445
1031
0.0
1011
-0.0000000000001472
1021
2.539999999999155
1031
0.0
1011
-0.0000000000001472
1021
-0.0000000000008445
1031
1.0
  0
VERTEX
  5
1F9
330
1F8
100
AcDbEntity
  8
0
 62
     0
100
AcDbVertex
100
AcDbPolyFaceMeshVertex
 10
180.3800000000002
 20
-0.8200000000009199
 30
76.79999999999991
 70
   192
  0
VERTEX
  5
1FA
330
1F8
100
AcDbEntity
  8
0
 62
     0
100
AcDbVertex
100
AcDbPolyFaceMeshVertex
 10
131.76
 20
-1.640000000001128
 30
76.79999999999987
 70
   192
  0
VERTEX
  5
1FB
330
1F8
100
AcDbEntity
  8
0
 62
     0
100
AcDbVertex
100
AcDbPolyFaceMeshVertex
 10
131.7599999999999
 20
-0.8200000000009824
 30
76.79999999999987
 70
   192
  0
VERTEX
  5
1FC
330
1F8
100
AcDbEntity
  8
0
 62
     0
100
AcDbVertex
100
AcDbPolyFaceMeshVertex
 10
180.3800000000002
 20
-1.640000000001075
 30
76.7999999999999
 70
   192
  0
VERTEX
  5
1FD
330
1F8
100
AcDbEntity
  8
0
 62
     0
100
AcDbFaceRecord
 10
0.0
 20
0.0
 30
0.0
 70
   128
 71
    -1
 72
     2
 73
     3
  0
VERTEX
  5
1FE
330
1F8
100
AcDbEntity
  8
0
 62
     0
100
AcDbFaceRecord
 10
0.0
 20
0.0
 30
0.0
 70
   128
 71
    -2
 72
     1
 73
     4
  0
SEQEND
  5
1FF
330
1F8
100
AcDbEntity
  8
0
 62
     0
  0
LINE
  5
200
330
1F
100
AcDbEntity
  8
0
 62
   253
100
AcDbLine
 10
131.7599999999999
 20
-0.8200000000009824
 30
76.79999999999987
 11
180.3800000000002
 21
-0.8200000000009199
 31
76.79999999999991
  0
LINE
  5
201
330
1F
100
AcDbEntity
  8
0
 62
     0
100
AcDbLine
 10
180.3800000000002
 20
-1.640000000001075
 30
76.7999999999999
 11
180.3800000000002
 21
-0.8200000000009199
 31
76.79999999999991
  0
LINE
  5
202
330
1F
100
AcDbEntity
  8
0
 62
   253
100
AcDbLine
 10
131.76
 20
-1.640000000001128
 30
76.79999999999987
 11
180.3800000000002
 21
-1.640000000001075
 31
76.7999999999999
  0
LINE
  5
203
330
1F
100
AcDbEntity
  8
0
 62
     0
100
AcDbLine
 10
131.76
 20
-1.640000000001128
 30
76.79999999999987
 11
131.7599999999999
 21
-0.8200000000009824
 31
76.79999999999987
  0
POLYLINE
  5
204
330
1F
100
AcDbEntity
  8
0
 62
   253
100
AcDbPolyFaceMesh
 66
     1
 10
0.0
 20
0.0
 30
0.0
 70
    64
 71
     4
 72
     2
1001
ACAD_MATERIAL_MAPPER
1070
     1
1070
     1
1070
     1
1011
0.0000000000003633
1021
0.0
1031
0.0000000000000454
1011
2.540000000000367
1021
0.0
1031
0.0000000000000454
1011
0.000000000000364
1021
0.0
1031
2.540000000000047
1011
0.0000000000003633
1021
1.0
1031
0.0000000000000454
  0
VERTEX
  5
205
330
204
100
AcDbEntity
  8
0
 62
   253
100
AcDbVertex
100
AcDbPolyFaceMeshVertex
 10
121.28
 20
-0.8200000000009303
 30
76.79999999999991
 70
   192
  0
VERTEX
  5
206
330
204
100
AcDbEntity
  8
0
 62
   253
100
AcDbVertex
100
AcDbPolyFaceMeshVertex
 10
111.2800000000001
 20
-0.8200000000004852
 30
25.11052362656891
 70
   192
  0
VERTEX
  5
207
330
204
100
AcDbEntity
  8
0
 62
   253
100
AcDbVertex
100
AcDbPolyFaceMeshVertex
 10
121.28
 20
-0.8200000000004715
 30
25.1105236265689
 70
   192
  0
VERTEX
  5
208
330
204
100
AcDbEntity
  8
0
 62
   253
100
AcDbVertex
100
AcDbPolyFaceMeshVertex
 10
111.2800000000001
 20
-0.8200000000009695
 30
76.79999999999991
 70
   192
  0
VERTEX
  5
209
330
204
100
AcDbEntity
  8
0
 62
   253
100
AcDbFaceRecord
 10
0.0
 20
0.0
 30
0.0
 70
   128
 71
    -1
 72
     2
 73
     3
  0
VERTEX
  5
20A
330
204
100
AcDbEntity
  8
0
 62
   253
100
AcDbFaceRecord
 10
0.0
 20
0.0
 30
0.0
 70
   128
 71
    -2
 72
     1
 73
     4
  0
SEQEND
  5
20B
330
204
100
AcDbEntity
  8
0
 62
   253
  0
LINE
  5
20C
330
1F
100
AcDbEntity
  8
0
 62
   253
100
AcDbLine
 10
111.2800000000001
 20
-0.8200000000009695
 30
76.79999999999991
 11
121.28
 21
-0.8200000000009303
 31
76.79999999999991
  0
LINE
  5
20D
330
1F
100
AcDbEntity
  8
0
 62
   253
100
AcDbLine
 10
111.2800000000001
 20
-0.8200000000009695
 30
76.79999999999991
 11
111.2800000000001
 21
-0.8200000000004852
 31
25.11052362656891
  0
LINE
  5
20E
330
1F
100
AcDbEntity
  8
0
 62
   253
100
AcDbLine
 10
121.28
 20
-0.8200000000004715
 30
25.1105236265689
 11
111.2800000000001
 21
-0.8200000000004852
 31
25.11052362656891
  0
LINE
  5
20F
330
1F
100
AcDbEntity
  8
0
 62
   253
100
AcDbLine
 10
121.28
 20
-0.8200000000009303
 30
76.79999999999991
 11
121.28
 21
-0.8200000000004715
 31
25.1105236265689
  0
POLYLINE
  5
210
330
1F
100
AcDbEntity
  8
0
 62
   253
100
AcDbPolyFaceMesh
 66
     1
 10
0.0
 20
0.0
 30
0.0
 70
    64
 71
     4
 72
     2
1001
ACAD_MATERIAL_MAPPER
1070
     1
1070
     1
1070
     1
1011
0.0
1021
-0.0000000000000002
1031
0.0
1011
2.539999999999999
1021
-0.0000000000000002
1031
0.0
1011
0.0
1021
2.54
1031
0.0
1011
0.0
1021
-0.0000000000000002
1031
1.0
  0
VERTEX
  5
211
330
210
100
AcDbEntity
  8
0
 62
   253
100
AcDbVertex
100
AcDbPolyFaceMeshVertex
 10
190.3800000000001
 20
-0.8200000000010016
 30
86.7999999999999
 70
   192
  0
VERTEX
  5
212
330
210
100
AcDbEntity
  8
0
 62
   253
100
AcDbVertex
100
AcDbPolyFaceMeshVertex
 10
121.76
 20
-0.0000000000012047
 30
86.79999999999988
 70
   192
  0
VERTEX
  5
213
330
210
100
AcDbEntity
  8
0
 62
   253
100
AcDbVertex
100
AcDbPolyFaceMeshVertex
 10
121.7599999999999
 20
-0.8200000000011503
 30
86.79999999999987
 70
   192
  0
VERTEX
  5
214
330
210
100
AcDbEntity
  8
0
 62
   253
100
AcDbVertex
100
AcDbPolyFaceMeshVertex
 10
190.3799999999999
 20
-0.000000000001126
 30
86.79999999999988
 70
   192
  0
VERTEX
  5
215
330
210
100
AcDbEntity
  8
0
 62
   253
100
AcDbFaceRecord
 10
0.0
 20
0.0
 30
0.0
 70
   128
 71
    -1
 72
     2
 73
     3
  0
VERTEX
  5
216
330
210
100
AcDbEntity
  8
0
 62
   253
100
AcDbFaceRecord
 10
0.0
 20
0.0
 30
0.0
 70
   128
 71
    -2
 72
     1
 73
     4
  0
SEQEND
  5
217
330
210
100
AcDbEntity
  8
0
 62
   253
  0
LINE
  5
218
330
1F
100
AcDbEntity
  8
0
 62
   253
100
AcDbLine
 10
190.3799999999999
 20
-0.000000000001126
 30
86.79999999999988
 11
190.3800000000001
 21
-0.8200000000010016
 31
86.7999999999999
  0
LINE
  5
219
330
1F
100
AcDbEntity
  8
0
 62
   253
100
AcDbLine
 10
121.76
 20
-0.0000000000012047
 30
86.79999999999988
 11
190.3799999999999
 21
-0.000000000001126
 31
86.79999999999988
  0
LINE
  5
21A
330
1F
100
AcDbEntity
  8
0
 62
   253
100
AcDbLine
 10
121.76
 20
-0.0000000000012047
 30
86.79999999999988
 11
121.7599999999999
 21
-0.8200000000011503
 31
86.79999999999987
  0
LINE
  5
21B
330
1F
100
AcDbEntity
  8
0
 62
   253
100
AcDbLine
 10
121.7599999999999
 20
-0.8200000000011503
 30
86.79999999999987
 11
190.3800000000001
 21
-0.8200000000010016
 31
86.7999999999999
  0
POLYLINE
  5
21C
330
1F
100
AcDbEntity
  8
0
 62
   253
100
AcDbPolyFaceMesh
 66
     1
 10
0.0
 20
0.0
 30
0.0
 70
    64
 71
     6
 72
     4
1001
ACAD_MATERIAL_MAPPER
1070
     1
1070
     1
1070
     1
1011
0.0000000000074539
1021
0.0000000000009317
1031
0.0
1011
2.540000000007493
1021
0.0000000000009336
1031
0.0
1011
0.0000000000074539
1021
2.540000000000955
1031
0.0
1011
0.0000000000074539
1021
0.0000000000009317
1031
1.0
  0
VERTEX
  5
21D
330
21C
100
AcDbEntity
  8
0
 62
   253
100
AcDbVertex
100
AcDbPolyFaceMeshVertex
 10
121.76
 20
-1.640000000001203
 30
86.79999999999988
 70
   192
  0
VERTEX
  5
21E
330
21C
100
AcDbEntity
  8
0
 62
   253
100
AcDbVertex
100
AcDbPolyFaceMeshVertex
 10
121.2800000000001
 20
-0.820000000001084
 30
86.79999999999993
 70
   192
  0
VERTEX
  5
21F
330
21C
100
AcDbEntity
  8
0
 62
   253
100
AcDbVertex
100
AcDbPolyFaceMeshVertex
 10
121.2799999999999
 20
-1.640000000001211
 30
86.79999999999993
 70
   192
  0
VERTEX
  5
220
330
21C
100
AcDbEntity
  8
0
 62
   253
100
AcDbVertex
100
AcDbPolyFaceMeshVertex
 10
121.2800000000001
 20
-0.0000000000011517
 30
86.79999999999988
 70
   192
  0
VERTEX
  5
221
330
21C
100
AcDbEntity
  8
0
 62
   253
100
AcDbVertex
100
AcDbPolyFaceMeshVertex
 10
121.7599999999999
 20
-0.8200000000011503
 30
86.79999999999987
 70
   192
  0
VERTEX
  5
222
330
21C
100
AcDbEntity
  8
0
 62
   253
100
AcDbVertex
100
AcDbPolyFaceMeshVertex
 10
121.76
 20
-0.0000000000012047
 30
86.79999999999988
 70
   192
  0
VERTEX
  5
223
330
21C
100
AcDbEntity
  8
0
 62
   253
100
AcDbFaceRecord
 10
0.0
 20
0.0
 30
0.0
 70
   128
 71
    -1
 72
     2
 73
     3
  0
VERTEX
  5
224
330
21C
100
AcDbEntity
  8
0
 62
   253
100
AcDbFaceRecord
 10
0.0
 20
0.0
 30
0.0
 70
   128
 71
    -2
 72
    -1
 73
     4
  0
VERTEX
  5
225
330
21C
100
AcDbEntity
  8
0
 62
   253
100
AcDbFaceRecord
 10
0.0
 20
0.0
 30
0.0
 70
   128
 71
    -4
 72
     1
 73
    -5
  0
VERTEX
  5
226
330
21C
100
AcDbEntity
  8
0
 62
   253
100
AcDbFaceRecord
 10
0.0
 20
0.0
 30
0.0
 70
   128
 71
     6
 72
    -4
 73
     5
  0
SEQEND
  5
227
330
21C
100
AcDbEntity
  8
0
 62
   253
  0
LINE
  5
228
330
1F
100
AcDbEntity
  8
0
 62
   253
100
AcDbLine
 10
121.2799999999999
 20
-1.640000000001211
 30
86.79999999999993
 11
121.76
 21
-1.640000000001203
 31
86.79999999999988
  0
LINE
  5
229
330
1F
100
AcDbEntity
  8
0
 62
   253
100
AcDbLine
 10
121.7599999999999
 20
-0.8200000000011503
 30
86.79999999999987
 11
121.76
 21
-1.640000000001203
 31
86.79999999999988
  0
LINE
  5
22A
330
1F
100
AcDbEntity
  8
0
 62
   253
100
AcDbLine
 10
121.76
 20
-0.0000000000012047
 30
86.79999999999988
 11
121.7599999999999
 21
-0.8200000000011503
 31
86.79999999999987
  0
LINE
  5
22B
330
1F
100
AcDbEntity
  8
0
 62
   253
100
AcDbLine
 10
121.2800000000001
 20
-0.0000000000011517
 30
86.79999999999988
 11
121.76
 21
-0.0000000000012047
 31
86.79999999999988
  0
LINE
  5
22C
330
1F
100
AcDbEntity
  8
0
 62
   253
100
AcDbLine
 10
121.2800000000001
 20
-0.0000000000011517
 30
86.79999999999988
 11
121.2800000000001
 21
-0.820000000001084
 31
86.79999999999993
  0
LINE
  5
22D
330
1F
100
AcDbEntity
  8
0
 62
   253
100
AcDbLine
 10
121.2800000000001
 20
-0.820000000001084
 30
86.79999999999993
 11
121.2799999999999
 21
-1.640000000001211
 31
86.79999999999993
  0
POLYLINE
  5
22E
330
1F
100
AcDbEntity
  8
0
 62
     0
100
AcDbPolyFaceMesh
 66
     1
 10
0.0
 20
0.0
 30
0.0
 70
    64
 71
     4
 72
     2
1001
ACAD_MATERIAL_MAPPER
1070
     1
1070
     1
1070
     1
1011
0.0000000000000219
1021
-0.0000000000016907
1031
0.0
1011
-2.539999999999978
1021
-0.0000000000016907
1031
0.0
1011
0.0000000000000219
1021
2.53999999999831
1031
0.0
1011
0.0000000000000219
1021
-0.0000000000016907
1031
1.0
  0
VERTEX
  5
22F
330
22E
100
AcDbEntity
  8
0
 62
     0
100
AcDbVertex
100
AcDbPolyFaceMeshVertex
 10
60.2600000000001
 20
-0.8200000000009517
 30
76.79999999999991
 70
   192
  0
VERTEX
  5
230
330
22E
100
AcDbEntity
  8
0
 62
     0
100
AcDbVertex
100
AcDbPolyFaceMeshVertex
 10
111.2800000000003
 20
-1.640000000001117
 30
76.7999999999999
 70
   192
  0
VERTEX
  5
231
330
22E
100
AcDbEntity
  8
0
 62
     0
100
AcDbVertex
100
AcDbPolyFaceMeshVertex
 10
60.26000000000004
 20
-1.640000000001056
 30
76.7999999999999
 70
   192
  0
VERTEX
  5
232
330
22E
100
AcDbEntity
  8
0
 62
     0
100
AcDbVertex
100
AcDbPolyFaceMeshVertex
 10
111.2800000000001
 20
-0.8200000000009695
 30
76.79999999999991
 70
   192
  0
VERTEX
  5
233
330
22E
100
AcDbEntity
  8
0
 62
     0
100
AcDbFaceRecord
 10
0.0
 20
0.0
 30
0.0
 70
   128
 71
    -1
 72
     2
 73
     3
  0
VERTEX
  5
234
330
22E
100
AcDbEntity
  8
0
 62
     0
100
AcDbFaceRecord
 10
0.0
 20
0.0
 30
0.0
 70
   128
 71
    -2
 72
     1
 73
     4
  0
SEQEND
  5
235
330
22E
100
AcDbEntity
  8
0
 62
     0
  0
LINE
  5
236
330
1F
100
AcDbEntity
  8
0
 62
   253
100
AcDbLine
 10
60.26000000000004
 20
-1.640000000001056
 30
76.7999999999999
 11
111.2800000000003
 21
-1.640000000001117
 31
76.7999999999999
  0
LINE
  5
237
330
1F
100
AcDbEntity
  8
0
 62
     0
100
AcDbLine
 10
60.26000000000004
 20
-1.640000000001056
 30
76.7999999999999
 11
60.2600000000001
 21
-0.8200000000009517
 31
76.79999999999991
  0
LINE
  5
238
330
1F
100
AcDbEntity
  8
0
 62
   253
100
AcDbLine
 10
60.2600000000001
 20
-0.8200000000009517
 30
76.79999999999991
 11
111.2800000000001
 21
-0.8200000000009695
 31
76.79999999999991
  0
LINE
  5
239
330
1F
100
AcDbEntity
  8
0
 62
     0
100
AcDbLine
 10
111.2800000000003
 20
-1.640000000001117
 30
76.7999999999999
 11
111.2800000000001
 21
-0.8200000000009695
 31
76.79999999999991
  0
POLYLINE
  5
23A
330
1F
100
AcDbEntity
  8
0
 62
     0
100
AcDbPolyFaceMesh
 66
     1
 10
0.0
 20
0.0
 30
0.0
 70
    64
 71
    10
 72
    10
1001
ACAD_MATERIAL_MAPPER
1070
     1
1070
     1
1070
     1
1011
-0.0000000000000684
1021
0.0
1031
-0.0000000000000171
1011
2.539999999999931
1021
0.0
1031
-0.0000000000000171
1011
-0.0000000000000705
1021
0.0
1031
2.539999999999983
1011
-0.0000000000000684
1021
1.0
1031
-0.0000000000000171
  0
VERTEX
  5
23B
330
23A
100
AcDbEntity
  8
0
 62
     0
100
AcDbVertex
100
AcDbPolyFaceMeshVertex
 10
190.38
 20
-1.640000000000402
 30
15.11052362656889
 70
   192
  0
VERTEX
  5
23C
330
23A
100
AcDbEntity
  8
0
 62
     0
100
AcDbVertex
100
AcDbPolyFaceMeshVertex
 10
180.3800000000001
 20
-1.640000000000609
 30
25.11052362656889
 70
   192
  0
VERTEX
  5
23D
330
23A
100
AcDbEntity
  8
0
 62
     0
100
AcDbVertex
100
AcDbPolyFaceMeshVertex
 10
121.76
 20
-1.640000000000398
 30
15.1105236265689
 70
   192
  0
VERTEX
  5
23E
330
23A
100
AcDbEntity
  8
0
 62
     0
100
AcDbVertex
100
AcDbPolyFaceMeshVertex
 10
190.3799999999999
 20
-1.640000000001167
 30
86.79999999999993
 70
   192
  0
VERTEX
  5
23F
330
23A
100
AcDbEntity
  8
0
 62
     0
100
AcDbVertex
100
AcDbPolyFaceMeshVertex
 10
180.3800000000002
 20
-1.640000000001075
 30
76.7999999999999
 70
   192
  0
VERTEX
  5
240
330
23A
100
AcDbEntity
  8
0
 62
     0
100
AcDbVertex
100
AcDbPolyFaceMeshVertex
 10
121.76
 20
-1.640000000001034
 30
76.7999999999999
 70
   192
  0
VERTEX
  5
241
330
23A
100
AcDbEntity
  8
0
 62
     0
100
AcDbVertex
100
AcDbPolyFaceMeshVertex
 10
121.76
 20
-1.640000000001203
 30
86.79999999999988
 70
   192
  0
VERTEX
  5
242
330
23A
100
AcDbEntity
  8
0
 62
     0
100
AcDbVertex
100
AcDbPolyFaceMeshVertex
 10
121.76
 20
-1.640000000000543
 30
25.11052362656889
 70
   192
  0
VERTEX
  5
243
330
23A
100
AcDbEntity
  8
0
 62
     0
100
AcDbVertex
100
AcDbPolyFaceMeshVertex
 10
131.76
 20
-1.640000000000473
 30
25.1105236265689
 70
   192
  0
VERTEX
  5
244
330
23A
100
AcDbEntity
  8
0
 62
     0
100
AcDbVertex
100
AcDbPolyFaceMeshVertex
 10
131.76
 20
-1.640000000001128
 30
76.79999999999987
 70
   192
  0
VERTEX
  5
245
330
23A
100
AcDbEntity
  8
0
 62
     0
100
AcDbFaceRecord
 10
0.0
 20
0.0
 30
0.0
 70
   128
 71
    -1
 72
    -2
 73
     3
  0
VERTEX
  5
246
330
23A
100
AcDbEntity
  8
0
 62
     0
100
AcDbFaceRecord
 10
0.0
 20
0.0
 30
0.0
 70
   128
 71
    -2
 72
     1
 73
    -4
  0
VERTEX
  5
247
330
23A
100
AcDbEntity
  8
0
 62
     0
100
AcDbFaceRecord
 10
0.0
 20
0.0
 30
0.0
 70
   128
 71
    -2
 72
    -4
 73
     5
  0
VERTEX
  5
248
330
23A
100
AcDbEntity
  8
0
 62
     0
100
AcDbFaceRecord
 10
0.0
 20
0.0
 30
0.0
 70
   128
 71
    -5
 72
    -4
 73
    -6
  0
VERTEX
  5
249
330
23A
100
AcDbEntity
  8
0
 62
     0
100
AcDbFaceRecord
 10
0.0
 20
0.0
 30
0.0
 70
   128
 71
    -6
 72
     4
 73
     7
  0
VERTEX
  5
24A
330
23A
100
AcDbEntity
  8
0
 62
     0
100
AcDbFaceRecord
 10
0.0
 20
0.0
 30
0.0
 70
   128
 71
    -2
 72
     8
 73
    -3
  0
VERTEX
  5
24B
330
23A
100
AcDbEntity
  8
0
 62
     0
100
AcDbFaceRecord
 10
0.0
 20
0.0
 30
0.0
 70
   128
 71
    -8
 72
     2
 73
    -9
  0
VERTEX
  5
24C
330
23A
100
AcDbEntity
  8
0
 62
     0
100
AcDbFaceRecord
 10
0.0
 20
0.0
 30
0.0
 70
   128
 71
    -8
 72
    -9
 73
     6
  0
VERTEX
  5
24D
330
23A
100
AcDbEntity
  8
0
 62
     0
100
AcDbFaceRecord
 10
0.0
 20
0.0
 30
0.0
 70
   128
 71
    -6
 72
     9
 73
   -10
  0
VERTEX
  5
24E
330
23A
100
AcDbEntity
  8
0
 62
     0
100
AcDbFaceRecord
 10
0.0
 20
0.0
 30
0.0
 70
   128
 71
    -6
 72
    10
 73
    -5
  0
SEQEND
  5
24F
330
23A
100
AcDbEntity
  8
0
 62
     0
  0
LINE
  5
250
330
1F
100
AcDbEntity
  8
0
 62
   253
100
AcDbLine
 10
121.76
 20
-1.640000000000543
 30
25.11052362656889
 11
121.76
 21
-1.640000000000398
 31
15.1105236265689
  0
LINE
  5
251
330
1F
100
AcDbEntity
  8
0
 62
   253
100
AcDbLine
 10
190.38
 20
-1.640000000000402
 30
15.11052362656889
 11
121.76
 21
-1.640000000000398
 31
15.1105236265689
  0
LINE
  5
252
330
1F
100
AcDbEntity
  8
0
 62
   253
100
AcDbLine
 10
190.3799999999999
 20
-1.640000000001167
 30
86.79999999999993
 11
190.38
 21
-1.640000000000402
 31
15.11052362656889
  0
LINE
  5
253
330
1F
100
AcDbEntity
  8
0
 62
   253
100
AcDbLine
 10
121.76
 20
-1.640000000001203
 30
86.79999999999988
 11
190.3799999999999
 21
-1.640000000001167
 31
86.79999999999993
  0
LINE
  5
254
330
1F
100
AcDbEntity
  8
0
 62
   253
100
AcDbLine
 10
121.76
 20
-1.640000000001203
 30
86.79999999999988
 11
121.76
 21
-1.640000000001034
 31
76.7999999999999
  0
LINE
  5
255
330
1F
100
AcDbEntity
  8
0
 62
   253
100
AcDbLine
 10
121.76
 20
-1.640000000001034
 30
76.7999999999999
 11
121.76
 21
-1.640000000000543
 31
25.11052362656889
  0
LINE
  5
256
330
1F
100
AcDbEntity
  8
0
 62
   253
100
AcDbLine
 10
131.76
 20
-1.640000000000473
 30
25.1105236265689
 11
131.76
 21
-1.640000000001128
 31
76.79999999999987
  0
LINE
  5
257
330
1F
100
AcDbEntity
  8
0
 62
   253
100
AcDbLine
 10
131.76
 20
-1.640000000001128
 30
76.79999999999987
 11
180.3800000000002
 21
-1.640000000001075
 31
76.7999999999999
  0
LINE
  5
258
330
1F
100
AcDbEntity
  8
0
 62
   253
100
AcDbLine
 10
180.3800000000002
 20
-1.640000000001075
 30
76.7999999999999
 11
180.3800000000001
 21
-1.640000000000609
 31
25.11052362656889
  0
LINE
  5
259
330
1F
100
AcDbEntity
  8
0
 62
   253
100
AcDbLine
 10
180.3800000000001
 20
-1.640000000000609
 30
25.11052362656889
 11
131.76
 21
-1.640000000000473
 31
25.1105236265689
  0
POLYLINE
  5
25A
330
1F
100
AcDbEntity
  8
0
 62
     0
100
AcDbPolyFaceMesh
 66
     1
 10
0.0
 20
0.0
 30
0.0
 70
    64
 71
     4
 72
     2
1001
ACAD_MATERIAL_MAPPER
1070
     1
1070
     1
1070
     1
1011
0.0
1021
0.0000000000000141
1031
0.0
1011
0.0
1021
-2.539999999999986
1031
0.0
1011
0.0
1021
0.0000000000000141
1031
2.54
1011
1.0
1021
0.0000000000000141
1031
0.0
  0
VERTEX
  5
25B
330
25A
100
AcDbEntity
  8
0
 62
     0
100
AcDbVertex
100
AcDbPolyFaceMeshVertex
 10
180.3800000000002
 20
-0.8200000000009199
 30
76.79999999999991
 70
   192
  0
VERTEX
  5
25C
330
25A
100
AcDbEntity
  8
0
 62
     0
100
AcDbVertex
100
AcDbPolyFaceMeshVertex
 10
180.3800000000001
 20
-1.640000000000609
 30
25.11052362656889
 70
   192
  0
VERTEX
  5
25D
330
25A
100
AcDbEntity
  8
0
 62
     0
100
AcDbVertex
100
AcDbPolyFaceMeshVertex
 10
180.3800000000002
 20
-1.640000000001075
 30
76.7999999999999
 70
   192
  0
VERTEX
  5
25E
330
25A
100
AcDbEntity
  8
0
 62
     0
100
AcDbVertex
100
AcDbPolyFaceMeshVertex
 10
180.3800000000004
 20
-0.8200000000004528
 30
25.11052362656891
 70
   192
  0
VERTEX
  5
25F
330
25A
100
AcDbEntity
  8
0
 62
     0
100
AcDbFaceRecord
 10
0.0
 20
0.0
 30
0.0
 70
   128
 71
    -1
 72
     2
 73
     3
  0
VERTEX
  5
260
330
25A
100
AcDbEntity
  8
0
 62
     0
100
AcDbFaceRecord
 10
0.0
 20
0.0
 30
0.0
 70
   128
 71
    -2
 72
     1
 73
     4
  0
SEQEND
  5
261
330
25A
100
AcDbEntity
  8
0
 62
     0
  0
LINE
  5
262
330
1F
100
AcDbEntity
  8
0
 62
   253
100
AcDbLine
 10
180.3800000000002
 20
-0.8200000000009199
 30
76.79999999999991
 11
180.3800000000004
 21
-0.8200000000004528
 31
25.11052362656891
  0
LINE
  5
263
330
1F
100
AcDbEntity
  8
0
 62
     0
100
AcDbLine
 10
180.3800000000001
 20
-1.640000000000609
 30
25.11052362656889
 11
180.3800000000004
 21
-0.8200000000004528
 31
25.11052362656891
  0
LINE
  5
264
330
1F
100
AcDbEntity
  8
0
 62
   253
100
AcDbLine
 10
180.3800000000002
 20
-1.640000000001075
 30
76.7999999999999
 11
180.3800000000001
 21
-1.640000000000609
 31
25.11052362656889
  0
LINE
  5
265
330
1F
100
AcDbEntity
  8
0
 62
     0
100
AcDbLine
 10
180.3800000000002
 20
-1.640000000001075
 30
76.7999999999999
 11
180.3800000000002
 21
-0.8200000000009199
 31
76.79999999999991
  0
POLYLINE
  5
266
330
1F
100
AcDbEntity
  8
0
 62
     0
100
AcDbPolyFaceMesh
 66
     1
 10
0.0
 20
0.0
 30
0.0
 70
    64
 71
     4
 72
     2
1001
ACAD_MATERIAL_MAPPER
1070
     1
1070
     1
1070
     1
1011
-0.0000000000001463
1021
-0.0000000000001371
1031
0.0
1011
2.539999999999853
1021
-0.0000000000001371
1031
0.0
1011
-0.0000000000001463
1021
2.539999999999863
1031
0.0
1011
-0.0000000000001463
1021
-0.0000000000001371
1031
1.0
  0
VERTEX
  5
267
330
266
100
AcDbEntity
  8
0
 62
     0
100
AcDbVertex
100
AcDbPolyFaceMeshVertex
 10
200.86
 20
-1.640000000000589
 30
25.11052362656891
 70
   192
  0
VERTEX
  5
268
330
266
100
AcDbEntity
  8
0
 62
     0
100
AcDbVertex
100
AcDbPolyFaceMeshVertex
 10
249.7799999999998
 20
-0.8200000000005006
 30
25.11052362656891
 70
   192
  0
VERTEX
  5
269
330
266
100
AcDbEntity
  8
0
 62
     0
100
AcDbVertex
100
AcDbPolyFaceMeshVertex
 10
200.86
 20
-0.8200000000004193
 30
25.11052362656891
 70
   192
  0
VERTEX
  5
26A
330
266
100
AcDbEntity
  8
0
 62
     0
100
AcDbVertex
100
AcDbPolyFaceMeshVertex
 10
249.7799999999997
 20
-1.640000000000626
 30
25.11052362656891
 70
   192
  0
VERTEX
  5
26B
330
266
100
AcDbEntity
  8
0
 62
     0
100
AcDbFaceRecord
 10
0.0
 20
0.0
 30
0.0
 70
   128
 71
    -1
 72
     2
 73
     3
  0
VERTEX
  5
26C
330
266
100
AcDbEntity
  8
0
 62
     0
100
AcDbFaceRecord
 10
0.0
 20
0.0
 30
0.0
 70
   128
 71
    -2
 72
     1
 73
     4
  0
SEQEND
  5
26D
330
266
100
AcDbEntity
  8
0
 62
     0
  0
LINE
  5
26E
330
1F
100
AcDbEntity
  8
0
 62
   253
100
AcDbLine
 10
249.7799999999998
 20
-0.8200000000005006
 30
25.11052362656891
 11
200.86
 21
-0.8200000000004193
 31
25.11052362656891
  0
LINE
  5
26F
330
1F
100
AcDbEntity
  8
0
 62
   253
100
AcDbLine
 10
200.86
 20
-0.8200000000004193
 30
25.11052362656891
 11
200.86
 21
-1.640000000000589
 31
25.11052362656891
  0
LINE
  5
270
330
1F
100
AcDbEntity
  8
0
 62
   253
100
AcDbLine
 10
249.7799999999997
 20
-1.640000000000626
 30
25.11052362656891
 11
200.86
 21
-1.640000000000589
 31
25.11052362656891
  0
LINE
  5
271
330
1F
100
AcDbEntity
  8
0
 62
   253
100
AcDbLine
 10
249.7799999999998
 20
-0.8200000000005006
 30
25.11052362656891
 11
249.7799999999997
 21
-1.640000000000626
 31
25.11052362656891
  0
POLYLINE
  5
272
330
1F
100
AcDbEntity
  8
0
 62
     0
100
AcDbPolyFaceMesh
 66
     1
 10
0.0
 20
0.0
 30
0.0
 70
    64
 71
     4
 72
     2
1001
ACAD_MATERIAL_MAPPER
1070
     1
1070
     1
1070
     1
1011
0.0
1021
0.0000000000000022
1031
0.0000000000000346
1011
0.0
1021
-2.539999999999997
1031
0.0000000000000346
1011
0.0
1021
0.0000000000000022
1031
2.540000000000034
1011
1.0
1021
0.0000000000000022
1031
0.0000000000000346
  0
VERTEX
  5
273
330
272
100
AcDbEntity
  8
0
 62
     0
100
AcDbVertex
100
AcDbPolyFaceMeshVertex
 10
39.78000000000007
 20
-0.8200000000009315
 30
76.79999999999987
 70
   192
  0
VERTEX
  5
274
330
272
100
AcDbEntity
  8
0
 62
     0
100
AcDbVertex
100
AcDbPolyFaceMeshVertex
 10
39.78000000000008
 20
-1.640000000000569
 30
25.11052362656889
 70
   192
  0
VERTEX
  5
275
330
272
100
AcDbEntity
  8
0
 62
     0
100
AcDbVertex
100
AcDbPolyFaceMeshVertex
 10
39.78000000000009
 20
-1.640000000001073
 30
76.79999999999986
 70
   192
  0
VERTEX
  5
276
330
272
100
AcDbEntity
  8
0
 62
     0
100
AcDbVertex
100
AcDbPolyFaceMeshVertex
 10
39.78000000000009
 20
-0.820000000000388
 30
25.11052362656891
 70
   192
  0
VERTEX
  5
277
330
272
100
AcDbEntity
  8
0
 62
     0
100
AcDbFaceRecord
 10
0.0
 20
0.0
 30
0.0
 70
   128
 71
    -1
 72
     2
 73
     3
  0
VERTEX
  5
278
330
272
100
AcDbEntity
  8
0
 62
     0
100
AcDbFaceRecord
 10
0.0
 20
0.0
 30
0.0
 70
   128
 71
    -2
 72
     1
 73
     4
  0
SEQEND
  5
279
330
272
100
AcDbEntity
  8
0
 62
     0
  0
LINE
  5
27A
330
1F
100
AcDbEntity
  8
0
 62
   253
100
AcDbLine
 10
39.78000000000007
 20
-0.8200000000009315
 30
76.79999999999987
 11
39.78000000000009
 21
-0.820000000000388
 31
25.11052362656891
  0
LINE
  5
27B
330
1F
100
AcDbEntity
  8
0
 62
   253
100
AcDbLine
 10
39.78000000000009
 20
-0.820000000000388
 30
25.11052362656891
 11
39.78000000000008
 21
-1.640000000000569
 31
25.11052362656889
  0
LINE
  5
27C
330
1F
100
AcDbEntity
  8
0
 62
   253
100
AcDbLine
 10
39.78000000000009
 20
-1.640000000001073
 30
76.79999999999986
 11
39.78000000000008
 21
-1.640000000000569
 31
25.11052362656889
  0
LINE
  5
27D
330
1F
100
AcDbEntity
  8
0
 62
   253
100
AcDbLine
 10
39.78000000000007
 20
-0.8200000000009315
 30
76.79999999999987
 11
39.78000000000009
 21
-1.640000000001073
 31
76.79999999999986
  0
POLYLINE
  5
27E
330
1F
100
AcDbEntity
  8
0
 62
     0
100
AcDbPolyFaceMesh
 66
     1
 10
0.0
 20
0.0
 30
0.0
 70
    64
 71
     4
 72
     2
1001
ACAD_MATERIAL_MAPPER
1070
     1
1070
     1
1070
     1
1011
0.0
1021
0.0
1031
-0.0000000000000111
1011
2.54
1021
0.0
1031
-0.0000000000000111
1011
0.0
1021
0.0
1031
2.539999999999988
1011
0.0
1021
1.0
1031
-0.0000000000000111
  0
VERTEX
  5
27F
330
27E
100
AcDbEntity
  8
0
 62
     0
100
AcDbVertex
100
AcDbPolyFaceMeshVertex
 10
111.2800000000001
 20
-0.8200000000009695
 30
76.79999999999991
 70
   192
  0
VERTEX
  5
280
330
27E
100
AcDbEntity
  8
0
 62
     0
100
AcDbVertex
100
AcDbPolyFaceMeshVertex
 10
60.2600000000001
 20
-0.8200000000004671
 30
25.11052362656891
 70
   192
  0
VERTEX
  5
281
330
27E
100
AcDbEntity
  8
0
 62
     0
100
AcDbVertex
100
AcDbPolyFaceMeshVertex
 10
111.2800000000001
 20
-0.8200000000004852
 30
25.11052362656891
 70
   192
  0
VERTEX
  5
282
330
27E
100
AcDbEntity
  8
0
 62
     0
100
AcDbVertex
100
AcDbPolyFaceMeshVertex
 10
60.2600000000001
 20
-0.8200000000009517
 30
76.79999999999991
 70
   192
  0
VERTEX
  5
283
330
27E
100
AcDbEntity
  8
0
 62
     0
100
AcDbFaceRecord
 10
0.0
 20
0.0
 30
0.0
 70
   128
 71
    -1
 72
     2
 73
     3
  0
VERTEX
  5
284
330
27E
100
AcDbEntity
  8
0
 62
     0
100
AcDbFaceRecord
 10
0.0
 20
0.0
 30
0.0
 70
   128
 71
    -2
 72
     1
 73
     4
  0
SEQEND
  5
285
330
27E
100
AcDbEntity
  8
0
 62
     0
  0
LINE
  5
286
330
1F
100
AcDbEntity
  8
0
 62
   253
100
AcDbLine
 10
60.2600000000001
 20
-0.8200000000009517
 30
76.79999999999991
 11
111.2800000000001
 21
-0.8200000000009695
 31
76.79999999999991
  0
LINE
  5
287
330
1F
100
AcDbEntity
  8
0
 62
   253
100
AcDbLine
 10
60.2600000000001
 20
-0.8200000000004671
 30
25.11052362656891
 11
60.2600000000001
 21
-0.8200000000009517
 31
76.79999999999991
  0
LINE
  5
288
330
1F
100
AcDbEntity
  8
0
 62
   253
100
AcDbLine
 10
111.2800000000001
 20
-0.8200000000004852
 30
25.11052362656891
 11
60.2600000000001
 21
-0.8200000000004671
 31
25.11052362656891
  0
LINE
  5
289
330
1F
100
AcDbEntity
  8
0
 62
   253
100
AcDbLine
 10
111.2800000000001
 20
-0.8200000000009695
 30
76.79999999999991
 11
111.2800000000001
 21
-0.8200000000004852
 31
25.11052362656891
  0
POLYLINE
  5
28A
330
1F
100
AcDbEntity
  8
0
 62
     0
100
AcDbPolyFaceMesh
 66
     1
 10
0.0
 20
0.0
 30
0.0
 70
    64
 71
     4
 72
     2
1001
ACAD_MATERIAL_MAPPER
1070
     1
1070
     1
1070
     1
1011
0.0
1021
0.0000000000000039
1031
0.0
1011
0.0
1021
-2.539999999999995
1031
0.0
1011
0.0
1021
0.0000000000000039
1031
2.54
1011
1.0
1021
0.0000000000000039
1031
0.0
  0
VERTEX
  5
28B
330
28A
100
AcDbEntity
  8
0
 62
     0
100
AcDbVertex
100
AcDbPolyFaceMeshVertex
 10
50.26000000000004
 20
-0.8200000000010471
 30
86.79999999999993
 70
   192
  0
VERTEX
  5
28C
330
28A
100
AcDbEntity
  8
0
 62
     0
100
AcDbVertex
100
AcDbPolyFaceMeshVertex
 10
50.26000000000003
 20
-1.640000000000461
 30
15.11052362656889
 70
   192
  0
VERTEX
  5
28D
330
28A
100
AcDbEntity
  8
0
 62
     0
100
AcDbVertex
100
AcDbPolyFaceMeshVertex
 10
50.25999999999998
 20
-1.640000000001232
 30
86.79999999999993
 70
   192
  0
VERTEX
  5
28E
330
28A
100
AcDbEntity
  8
0
 62
     0
100
AcDbVertex
100
AcDbPolyFaceMeshVertex
 10
50.26000000000004
 20
-0.8200000000003398
 30
15.11052362656891
 70
   192
  0
VERTEX
  5
28F
330
28A
100
AcDbEntity
  8
0
 62
     0
100
AcDbFaceRecord
 10
0.0
 20
0.0
 30
0.0
 70
   128
 71
    -1
 72
     2
 73
     3
  0
VERTEX
  5
290
330
28A
100
AcDbEntity
  8
0
 62
     0
100
AcDbFaceRecord
 10
0.0
 20
0.0
 30
0.0
 70
   128
 71
    -2
 72
     1
 73
     4
  0
SEQEND
  5
291
330
28A
100
AcDbEntity
  8
0
 62
     0
  0
LINE
  5
292
330
1F
100
AcDbEntity
  8
0
 62
   253
100
AcDbLine
 10
50.26000000000003
 20
-1.640000000000461
 30
15.11052362656889
 11
50.25999999999998
 21
-1.640000000001232
 31
86.79999999999993
  0
LINE
  5
293
330
1F
100
AcDbEntity
  8
0
 62
   253
100
AcDbLine
 10
50.26000000000004
 20
-0.8200000000010471
 30
86.79999999999993
 11
50.25999999999998
 21
-1.640000000001232
 31
86.79999999999993
  0
LINE
  5
294
330
1F
100
AcDbEntity
  8
0
 62
   253
100
AcDbLine
 10
50.26000000000004
 20
-0.8200000000003398
 30
15.11052362656891
 11
50.26000000000004
 21
-0.8200000000010471
 31
86.79999999999993
  0
LINE
  5
295
330
1F
100
AcDbEntity
  8
0
 62
   253
100
AcDbLine
 10
50.26000000000004
 20
-0.8200000000003398
 30
15.11052362656891
 11
50.26000000000003
 21
-1.640000000000461
 31
15.11052362656889
  0
POLYLINE
  5
296
330
1F
100
AcDbEntity
  8
0
 62
   253
100
AcDbPolyFaceMesh
 66
     1
 10
0.0
 20
0.0
 30
0.0
 70
    64
 71
     4
 72
     2
1001
ACAD_MATERIAL_MAPPER
1070
     1
1070
     1
1070
     1
1011
0.0000000000000063
1021
0.0000000000000001
1031
0.0
1011
2.540000000000007
1021
0.0000000000000001
1031
0.0
1011
0.0000000000000063
1021
2.539999999999999
1031
0.0
1011
0.0000000000000063
1021
0.0000000000000001
1031
1.0
  0
VERTEX
  5
297
330
296
100
AcDbEntity
  8
0
 62
   253
100
AcDbVertex
100
AcDbPolyFaceMeshVertex
 10
121.2799999999999
 20
-1.640000000001211
 30
86.79999999999993
 70
   192
  0
VERTEX
  5
298
330
296
100
AcDbEntity
  8
0
 62
   253
100
AcDbVertex
100
AcDbPolyFaceMeshVertex
 10
50.26000000000004
 20
-0.8200000000010471
 30
86.79999999999993
 70
   192
  0
VERTEX
  5
299
330
296
100
AcDbEntity
  8
0
 62
   253
100
AcDbVertex
100
AcDbPolyFaceMeshVertex
 10
50.25999999999998
 20
-1.640000000001232
 30
86.79999999999993
 70
   192
  0
VERTEX
  5
29A
330
296
100
AcDbEntity
  8
0
 62
   253
100
AcDbVertex
100
AcDbPolyFaceMeshVertex
 10
121.2800000000001
 20
-0.820000000001084
 30
86.79999999999993
 70
   192
  0
VERTEX
  5
29B
330
296
100
AcDbEntity
  8
0
 62
   253
100
AcDbFaceRecord
 10
0.0
 20
0.0
 30
0.0
 70
   128
 71
    -1
 72
     2
 73
     3
  0
VERTEX
  5
29C
330
296
100
AcDbEntity
  8
0
 62
   253
100
AcDbFaceRecord
 10
0.0
 20
0.0
 30
0.0
 70
   128
 71
    -2
 72
     1
 73
     4
  0
SEQEND
  5
29D
330
296
100
AcDbEntity
  8
0
 62
   253
  0
LINE
  5
29E
330
1F
100
AcDbEntity
  8
0
 62
   253
100
AcDbLine
 10
50.25999999999998
 20
-1.640000000001232
 30
86.79999999999993
 11
121.2799999999999
 21
-1.640000000001211
 31
86.79999999999993
  0
LINE
  5
29F
330
1F
100
AcDbEntity
  8
0
 62
   253
100
AcDbLine
 10
121.2800000000001
 20
-0.820000000001084
 30
86.79999999999993
 11
121.2799999999999
 21
-1.640000000001211
 31
86.79999999999993
  0
LINE
  5
2A0
330
1F
100
AcDbEntity
  8
0
 62
   253
100
AcDbLine
 10
50.26000000000004
 20
-0.8200000000010471
 30
86.79999999999993
 11
121.2800000000001
 21
-0.820000000001084
 31
86.79999999999993
  0
LINE
  5
2A1
330
1F
100
AcDbEntity
  8
0
 62
   253
100
AcDbLine
 10
50.26000000000004
 20
-0.8200000000010471
 30
86.79999999999993
 11
50.25999999999998
 21
-1.640000000001232
 31
86.79999999999993
  0
POLYLINE
  5
2A2
330
1F
100
AcDbEntity
  8
0
 62
     0
100
AcDbPolyFaceMesh
 66
     1
 10
0.0
 20
0.0
 30
0.0
 70
    64
 71
     4
 72
     2
1001
ACAD_MATERIAL_MAPPER
1070
     1
1070
     1
1070
     1
1011
0.0
1021
0.0000000000000022
1031
-0.0000000000000346
1011
0.0
1021
2.540000000000003
1031
-0.0000000000000346
1011
0.0
1021
0.0000000000000021
1031
2.539999999999966
1011
1.0
1021
0.0000000000000022
1031
-0.0000000000000346
  0
VERTEX
  5
2A3
330
2A2
100
AcDbEntity
  8
0
 62
     0
100
AcDbVertex
100
AcDbPolyFaceMeshVertex
 10
10.23999999999991
 20
-1.640000000000529
 30
25.11052362656889
 70
   192
  0
VERTEX
  5
2A4
330
2A2
100
AcDbEntity
  8
0
 62
     0
100
AcDbVertex
100
AcDbPolyFaceMeshVertex
 10
10.23999999999991
 20
-0.8200000000008941
 30
76.79999999999987
 70
   192
  0
VERTEX
  5
2A5
330
2A2
100
AcDbEntity
  8
0
 62
     0
100
AcDbVertex
100
AcDbPolyFaceMeshVertex
 10
10.23999999999992
 20
-1.640000000000997
 30
76.79999999999986
 70
   192
  0
VERTEX
  5
2A6
330
2A2
100
AcDbEntity
  8
0
 62
     0
100
AcDbVertex
100
AcDbPolyFaceMeshVertex
 10
10.23999999999991
 20
-0.8200000000003895
 30
25.11052362656891
 70
   192
  0
VERTEX
  5
2A7
330
2A2
100
AcDbEntity
  8
0
 62
     0
100
AcDbFaceRecord
 10
0.0
 20
0.0
 30
0.0
 70
   128
 71
    -1
 72
     2
 73
     3
  0
VERTEX
  5
2A8
330
2A2
100
AcDbEntity
  8
0
 62
     0
100
AcDbFaceRecord
 10
0.0
 20
0.0
 30
0.0
 70
   128
 71
    -2
 72
     1
 73
     4
  0
SEQEND
  5
2A9
330
2A2
100
AcDbEntity
  8
0
 62
     0
  0
LINE
  5
2AA
330
1F
100
AcDbEntity
  8
0
 62
   253
100
AcDbLine
 10
10.23999999999991
 20
-0.8200000000003895
 30
25.11052362656891
 11
10.23999999999991
 21
-0.8200000000008941
 31
76.79999999999987
  0
LINE
  5
2AB
330
1F
100
AcDbEntity
  8
0
 62
   253
100
AcDbLine
 10
10.23999999999991
 20
-0.8200000000008941
 30
76.79999999999987
 11
10.23999999999992
 21
-1.640000000000997
 31
76.79999999999986
  0
LINE
  5
2AC
330
1F
100
AcDbEntity
  8
0
 62
   253
100
AcDbLine
 10
10.23999999999991
 20
-1.640000000000529
 30
25.11052362656889
 11
10.23999999999992
 21
-1.640000000000997
 31
76.79999999999986
  0
LINE
  5
2AD
330
1F
100
AcDbEntity
  8
0
 62
   253
100
AcDbLine
 10
10.23999999999991
 20
-0.8200000000003895
 30
25.11052362656891
 11
10.23999999999991
 21
-1.640000000000529
 31
25.11052362656889
  0
POLYLINE
  5
2AE
330
1F
100
AcDbEntity
  8
0
 62
   253
100
AcDbPolyFaceMesh
 66
     1
 10
0.0
 20
0.0
 30
0.0
 70
    64
 71
     6
 72
     4
1001
ACAD_MATERIAL_MAPPER
1070
     1
1070
     1
1070
     1
1011
0.0
1021
0.0000000000000084
1031
0.0
1011
0.0
1021
2.540000000000008
1031
-0.0000000000000447
1011
0.0
1021
0.0000000000000084
1031
2.540000000000001
1011
1.0
1021
0.0000000000000084
1031
0.0
  0
VERTEX
  5
2AF
330
2AE
100
AcDbEntity
  8
0
 62
   253
100
AcDbVertex
100
AcDbPolyFaceMeshVertex
 10
121.28
 20
-0.8200000000009303
 30
76.79999999999991
 70
   192
  0
VERTEX
  5
2B0
330
2AE
100
AcDbEntity
  8
0
 62
   253
100
AcDbVertex
100
AcDbPolyFaceMeshVertex
 10
121.2800000000001
 20
-0.0000000000011517
 30
86.79999999999988
 70
   192
  0
VERTEX
  5
2B1
330
2AE
100
AcDbEntity
  8
0
 62
   253
100
AcDbVertex
100
AcDbPolyFaceMeshVertex
 10
121.2800000000001
 20
-0.820000000001084
 30
86.79999999999993
 70
   192
  0
VERTEX
  5
2B2
330
2AE
100
AcDbEntity
  8
0
 62
   253
100
AcDbVertex
100
AcDbPolyFaceMeshVertex
 10
121.28
 20
-0.8200000000004715
 30
25.1105236265689
 70
   192
  0
VERTEX
  5
2B3
330
2AE
100
AcDbEntity
  8
0
 62
   253
100
AcDbVertex
100
AcDbPolyFaceMeshVertex
 10
121.28
 20
-0.820000000000324
 30
15.11052362656891
 70
   192
  0
VERTEX
  5
2B4
330
2AE
100
AcDbEntity
  8
0
 62
   253
100
AcDbVertex
100
AcDbPolyFaceMeshVertex
 10
121.28
 20
-0.0000000000003034
 30
15.11052362656892
 70
   192
  0
VERTEX
  5
2B5
330
2AE
100
AcDbEntity
  8
0
 62
   253
100
AcDbFaceRecord
 10
0.0
 20
0.0
 30
0.0
 70
   128
 71
    -1
 72
     2
 73
     3
  0
VERTEX
  5
2B6
330
2AE
100
AcDbEntity
  8
0
 62
   253
100
AcDbFaceRecord
 10
0.0
 20
0.0
 30
0.0
 70
   128
 71
    -2
 72
     1
 73
    -4
  0
VERTEX
  5
2B7
330
2AE
100
AcDbEntity
  8
0
 62
   253
100
AcDbFaceRecord
 10
0.0
 20
0.0
 30
0.0
 70
   128
 71
    -2
 72
     4
 73
    -5
  0
VERTEX
  5
2B8
330
2AE
100
AcDbEntity
  8
0
 62
   253
100
AcDbFaceRecord
 10
0.0
 20
0.0
 30
0.0
 70
   128
 71
    -2
 72
     5
 73
     6
  0
SEQEND
  5
2B9
330
2AE
100
AcDbEntity
  8
0
 62
   253
  0
LINE
  5
2BA
330
1F
100
AcDbEntity
  8
0
 62
   253
100
AcDbLine
 10
121.28
 20
-0.8200000000004715
 30
25.1105236265689
 11
121.28
 21
-0.820000000000324
 31
15.11052362656891
  0
LINE
  5
2BB
330
1F
100
AcDbEntity
  8
0
 62
   253
100
AcDbLine
 10
121.28
 20
-0.0000000000003034
 30
15.11052362656892
 11
121.28
 21
-0.820000000000324
 31
15.11052362656891
  0
LINE
  5
2BC
330
1F
100
AcDbEntity
  8
0
 62
   253
100
AcDbLine
 10
121.2800000000001
 20
-0.0000000000011517
 30
86.79999999999988
 11
121.28
 21
-0.0000000000003034
 31
15.11052362656892
  0
LINE
  5
2BD
330
1F
100
AcDbEntity
  8
0
 62
   253
100
AcDbLine
 10
121.2800000000001
 20
-0.0000000000011517
 30
86.79999999999988
 11
121.2800000000001
 21
-0.820000000001084
 31
86.79999999999993
  0
LINE
  5
2BE
330
1F
100
AcDbEntity
  8
0
 62
   253
100
AcDbLine
 10
121.2800000000001
 20
-0.820000000001084
 30
86.79999999999993
 11
121.28
 21
-0.8200000000009303
 31
76.79999999999991
  0
LINE
  5
2BF
330
1F
100
AcDbEntity
  8
0
 62
   253
100
AcDbLine
 10
121.28
 20
-0.8200000000009303
 30
76.79999999999991
 11
121.28
 21
-0.8200000000004715
 31
25.1105236265689
  0
POLYLINE
  5
2C0
330
1F
100
AcDbEntity
  8
0
 62
   253
100
AcDbPolyFaceMesh
 66
     1
 10
0.0
 20
0.0
 30
0.0
 70
    64
 71
    10
 72
    10
1001
ACAD_MATERIAL_MAPPER
1070
     1
1070
     1
1070
     1
1011
0.0
1021
0.0
1031
0.0
1011
-2.540000000000003
1021
0.0
1031
0.0
1011
-0.0000000000000007
1021
0.0
1031
2.540000000000003
1011
0.0
1021
1.0
1031
0.0
  0
VERTEX
  5
2C1
330
2C0
100
AcDbEntity
  8
0
 62
   253
100
AcDbVertex
100
AcDbPolyFaceMeshVertex
 10
121.7599999999999
 20
-0.8200000000010811
 30
76.7999999999999
 70
   192
  0
VERTEX
  5
2C2
330
2C0
100
AcDbEntity
  8
0
 62
   253
100
AcDbVertex
100
AcDbPolyFaceMeshVertex
 10
131.7599999999999
 20
-0.8200000000004475
 30
25.11052362656891
 70
   192
  0
VERTEX
  5
2C3
330
2C0
100
AcDbEntity
  8
0
 62
   253
100
AcDbVertex
100
AcDbPolyFaceMeshVertex
 10
121.7599999999999
 20
-0.820000000000483
 30
25.11052362656891
 70
   192
  0
VERTEX
  5
2C4
330
2C0
100
AcDbEntity
  8
0
 62
   253
100
AcDbVertex
100
AcDbPolyFaceMeshVertex
 10
131.7599999999999
 20
-0.8200000000009824
 30
76.79999999999987
 70
   192
  0
VERTEX
  5
2C5
330
2C0
100
AcDbEntity
  8
0
 62
   253
100
AcDbVertex
100
AcDbPolyFaceMeshVertex
 10
180.3800000000002
 20
-0.8200000000009199
 30
76.79999999999991
 70
   192
  0
VERTEX
  5
2C6
330
2C0
100
AcDbEntity
  8
0
 62
   253
100
AcDbVertex
100
AcDbPolyFaceMeshVertex
 10
121.7599999999999
 20
-0.8200000000011503
 30
86.79999999999987
 70
   192
  0
VERTEX
  5
2C7
330
2C0
100
AcDbEntity
  8
0
 62
   253
100
AcDbVertex
100
AcDbPolyFaceMeshVertex
 10
190.38
 20
-0.8200000000003539
 30
15.11052362656891
 70
   192
  0
VERTEX
  5
2C8
330
2C0
100
AcDbEntity
  8
0
 62
   253
100
AcDbVertex
100
AcDbPolyFaceMeshVertex
 10
180.3800000000004
 20
-0.8200000000004528
 30
25.11052362656891
 70
   192
  0
VERTEX
  5
2C9
330
2C0
100
AcDbEntity
  8
0
 62
   253
100
AcDbVertex
100
AcDbPolyFaceMeshVertex
 10
190.3800000000001
 20
-0.8200000000010016
 30
86.7999999999999
 70
   192
  0
VERTEX
  5
2CA
330
2C0
100
AcDbEntity
  8
0
 62
   253
100
AcDbVertex
100
AcDbPolyFaceMeshVertex
 10
121.76
 20
-0.820000000000379
 30
15.11052362656891
 70
   192
  0
VERTEX
  5
2CB
330
2C0
100
AcDbEntity
  8
0
 62
   253
100
AcDbFaceRecord
 10
0.0
 20
0.0
 30
0.0
 70
   128
 71
    -1
 72
    -2
 73
     3
  0
VERTEX
  5
2CC
330
2C0
100
AcDbEntity
  8
0
 62
   253
100
AcDbFaceRecord
 10
0.0
 20
0.0
 30
0.0
 70
   128
 71
    -2
 72
    -1
 73
     4
  0
VERTEX
  5
2CD
330
2C0
100
AcDbEntity
  8
0
 62
   253
100
AcDbFaceRecord
 10
0.0
 20
0.0
 30
0.0
 70
   128
 71
    -4
 72
    -1
 73
     5
  0
VERTEX
  5
2CE
330
2C0
100
AcDbEntity
  8
0
 62
   253
100
AcDbFaceRecord
 10
0.0
 20
0.0
 30
0.0
 70
   128
 71
    -5
 72
     1
 73
    -6
  0
VERTEX
  5
2CF
330
2C0
100
AcDbEntity
  8
0
 62
   253
100
AcDbFaceRecord
 10
0.0
 20
0.0
 30
0.0
 70
   128
 71
    -7
 72
    -8
 73
     9
  0
VERTEX
  5
2D0
330
2C0
100
AcDbEntity
  8
0
 62
   253
100
AcDbFaceRecord
 10
0.0
 20
0.0
 30
0.0
 70
   128
 71
    -8
 72
     7
 73
   -10
  0
VERTEX
  5
2D1
330
2C0
100
AcDbEntity
  8
0
 62
   253
100
AcDbFaceRecord
 10
0.0
 20
0.0
 30
0.0
 70
   128
 71
    -8
 72
    10
 73
    -3
  0
VERTEX
  5
2D2
330
2C0
100
AcDbEntity
  8
0
 62
   253
100
AcDbFaceRecord
 10
0.0
 20
0.0
 30
0.0
 70
   128
 71
    -8
 72
    -3
 73
     2
  0
VERTEX
  5
2D3
330
2C0
100
AcDbEntity
  8
0
 62
   253
100
AcDbFaceRecord
 10
0.0
 20
0.0
 30
0.0
 70
   128
 71
    -9
 72
     8
 73
    -5
  0
VERTEX
  5
2D4
330
2C0
100
AcDbEntity
  8
0
 62
   253
100
AcDbFaceRecord
 10
0.0
 20
0.0
 30
0.0
 70
   128
 71
    -9
 72
    -5
 73
     6
  0
SEQEND
  5
2D5
330
2C0
100
AcDbEntity
  8
0
 62
   253
  0
LINE
  5
2D6
330
1F
100
AcDbEntity
  8
0
 62
   253
100
AcDbLine
 10
121.7599999999999
 20
-0.820000000000483
 30
25.11052362656891
 11
121.76
 21
-0.820000000000379
 31
15.11052362656891
  0
LINE
  5
2D7
330
1F
100
AcDbEntity
  8
0
 62
   253
100
AcDbLine
 10
121.7599999999999
 20
-0.8200000000010811
 30
76.7999999999999
 11
121.7599999999999
 21
-0.820000000000483
 31
25.11052362656891
  0
LINE
  5
2D8
330
1F
100
AcDbEntity
  8
0
 62
   253
100
AcDbLine
 10
121.7599999999999
 20
-0.8200000000011503
 30
86.79999999999987
 11
121.7599999999999
 21
-0.8200000000010811
 31
76.7999999999999
  0
LINE
  5
2D9
330
1F
100
AcDbEntity
  8
0
 62
   253
100
AcDbLine
 10
121.7599999999999
 20
-0.8200000000011503
 30
86.79999999999987
 11
190.3800000000001
 21
-0.8200000000010016
 31
86.7999999999999
  0
LINE
  5
2DA
330
1F
100
AcDbEntity
  8
0
 62
   253
100
AcDbLine
 10
190.3800000000001
 20
-0.8200000000010016
 30
86.7999999999999
 11
190.38
 21
-0.8200000000003539
 31
15.11052362656891
  0
LINE
  5
2DB
330
1F
100
AcDbEntity
  8
0
 62
   253
100
AcDbLine
 10
190.38
 20
-0.8200000000003539
 30
15.11052362656891
 11
121.76
 21
-0.820000000000379
 31
15.11052362656891
  0
LINE
  5
2DC
330
1F
100
AcDbEntity
  8
0
 62
   253
100
AcDbLine
 10
131.7599999999999
 20
-0.8200000000004475
 30
25.11052362656891
 11
131.7599999999999
 21
-0.8200000000009824
 31
76.79999999999987
  0
LINE
  5
2DD
330
1F
100
AcDbEntity
  8
0
 62
   253
100
AcDbLine
 10
180.3800000000004
 20
-0.8200000000004528
 30
25.11052362656891
 11
131.7599999999999
 21
-0.8200000000004475
 31
25.11052362656891
  0
LINE
  5
2DE
330
1F
100
AcDbEntity
  8
0
 62
   253
100
AcDbLine
 10
180.3800000000002
 20
-0.8200000000009199
 30
76.79999999999991
 11
180.3800000000004
 21
-0.8200000000004528
 31
25.11052362656891
  0
LINE
  5
2DF
330
1F
100
AcDbEntity
  8
0
 62
   253
100
AcDbLine
 10
131.7599999999999
 20
-0.8200000000009824
 30
76.79999999999987
 11
180.3800000000002
 21
-0.8200000000009199
 31
76.79999999999991
  0
POLYLINE
  5
2E0
330
1F
100
AcDbEntity
  8
0
 62
   253
100
AcDbPolyFaceMesh
 66
     1
 10
0.0
 20
0.0
 30
0.0
 70
    64
 71
     6
 72
     4
1001
ACAD_MATERIAL_MAPPER
1070
     1
1070
     1
1070
     1
1011
0.0000000000037269
1021
-0.0000000000002079
1031
0.0
1011
-2.539999999996183
1021
-0.0000000000002079
1031
0.0
1011
0.0000000000037269
1021
2.539999999999757
1031
0.0
1011
0.0000000000037269
1021
-0.0000000000002079
1031
1.0
  0
VERTEX
  5
2E1
330
2E0
100
AcDbEntity
  8
0
 62
   253
100
AcDbVertex
100
AcDbPolyFaceMeshVertex
 10
121.7599999999999
 20
-0.0000000000003012
 30
15.11052362656892
 70
   192
  0
VERTEX
  5
2E2
330
2E0
100
AcDbEntity
  8
0
 62
   253
100
AcDbVertex
100
AcDbPolyFaceMeshVertex
 10
121.28
 20
-0.820000000000324
 30
15.11052362656891
 70
   192
  0
VERTEX
  5
2E3
330
2E0
100
AcDbEntity
  8
0
 62
   253
100
AcDbVertex
100
AcDbPolyFaceMeshVertex
 10
121.28
 20
-0.0000000000003034
 30
15.11052362656892
 70
   192
  0
VERTEX
  5
2E4
330
2E0
100
AcDbEntity
  8
0
 62
   253
100
AcDbVertex
100
AcDbPolyFaceMeshVertex
 10
121.76
 20
-1.640000000000398
 30
15.1105236265689
 70
   192
  0
VERTEX
  5
2E5
330
2E0
100
AcDbEntity
  8
0
 62
   253
100
AcDbVertex
100
AcDbPolyFaceMeshVertex
 10
121.2799999999999
 20
-1.640000000000406
 30
15.11052362656889
 70
   192
  0
VERTEX
  5
2E6
330
2E0
100
AcDbEntity
  8
0
 62
   253
100
AcDbVertex
100
AcDbPolyFaceMeshVertex
 10
121.76
 20
-0.820000000000379
 30
15.11052362656891
 70
   192
  0
VERTEX
  5
2E7
330
2E0
100
AcDbEntity
  8
0
 62
   253
100
AcDbFaceRecord
 10
0.0
 20
0.0
 30
0.0
 70
   128
 71
    -1
 72
     2
 73
     3
  0
VERTEX
  5
2E8
330
2E0
100
AcDbEntity
  8
0
 62
   253
100
AcDbFaceRecord
 10
0.0
 20
0.0
 30
0.0
 70
   128
 71
    -2
 72
     4
 73
     5
  0
VERTEX
  5
2E9
330
2E0
100
AcDbEntity
  8
0
 62
   253
100
AcDbFaceRecord
 10
0.0
 20
0.0
 30
0.0
 70
   128
 71
    -4
 72
    -2
 73
     6
  0
VERTEX
  5
2EA
330
2E0
100
AcDbEntity
  8
0
 62
   253
100
AcDbFaceRecord
 10
0.0
 20
0.0
 30
0.0
 70
   128
 71
    -6
 72
    -2
 73
     1
  0
SEQEND
  5
2EB
330
2E0
100
AcDbEntity
  8
0
 62
   253
  0
LINE
  5
2EC
330
1F
100
AcDbEntity
  8
0
 62
   253
100
AcDbLine
 10
121.7599999999999
 20
-0.0000000000003012
 30
15.11052362656892
 11
121.28
 21
-0.0000000000003034
 31
15.11052362656892
  0
LINE
  5
2ED
330
1F
100
AcDbEntity
  8
0
 62
   253
100
AcDbLine
 10
121.7599999999999
 20
-0.0000000000003012
 30
15.11052362656892
 11
121.76
 21
-0.820000000000379
 31
15.11052362656891
  0
LINE
  5
2EE
330
1F
100
AcDbEntity
  8
0
 62
   253
100
AcDbLine
 10
121.76
 20
-0.820000000000379
 30
15.11052362656891
 11
121.76
 21
-1.640000000000398
 31
15.1105236265689
  0
LINE
  5
2EF
330
1F
100
AcDbEntity
  8
0
 62
   253
100
AcDbLine
 10
121.76
 20
-1.640000000000398
 30
15.1105236265689
 11
121.2799999999999
 21
-1.640000000000406
 31
15.11052362656889
  0
LINE
  5
2F0
330
1F
100
AcDbEntity
  8
0
 62
   253
100
AcDbLine
 10
121.28
 20
-0.820000000000324
 30
15.11052362656891
 11
121.2799999999999
 21
-1.640000000000406
 31
15.11052362656889
  0
LINE
  5
2F1
330
1F
100
AcDbEntity
  8
0
 62
   253
100
AcDbLine
 10
121.28
 20
-0.0000000000003034
 30
15.11052362656892
 11
121.28
 21
-0.820000000000324
 31
15.11052362656891
  0
POLYLINE
  5
2F2
330
1F
100
AcDbEntity
  8
0
 62
     0
100
AcDbPolyFaceMesh
 66
     1
 10
0.0
 20
0.0
 30
0.0
 70
    64
 71
     4
 72
     2
1001
ACAD_MATERIAL_MAPPER
1070
     1
1070
     1
1070
     1
1011
0.0
1021
0.0000000000000105
1031
0.0
1011
0.0
1021
-2.53999999999999
1031
0.0
1011
0.0
1021
0.0000000000000105
1031
2.54
1011
1.0
1021
0.0000000000000105
1031
0.0
  0
VERTEX
  5
2F3
330
2F2
100
AcDbEntity
  8
0
 62
     0
100
AcDbVertex
100
AcDbPolyFaceMeshVertex
 10
121.7599999999999
 20
-0.820000000000483
 30
25.11052362656891
 70
   192
  0
VERTEX
  5
2F4
330
2F2
100
AcDbEntity
  8
0
 62
     0
100
AcDbVertex
100
AcDbPolyFaceMeshVertex
 10
121.76
 20
-1.640000000000398
 30
15.1105236265689
 70
   192
  0
VERTEX
  5
2F5
330
2F2
100
AcDbEntity
  8
0
 62
     0
100
AcDbVertex
100
AcDbPolyFaceMeshVertex
 10
121.76
 20
-1.640000000000543
 30
25.11052362656889
 70
   192
  0
VERTEX
  5
2F6
330
2F2
100
AcDbEntity
  8
0
 62
     0
100
AcDbVertex
100
AcDbPolyFaceMeshVertex
 10
121.76
 20
-0.820000000000379
 30
15.11052362656891
 70
   192
  0
VERTEX
  5
2F7
330
2F2
100
AcDbEntity
  8
0
 62
     0
100
AcDbFaceRecord
 10
0.0
 20
0.0
 30
0.0
 70
   128
 71
    -1
 72
     2
 73
     3
  0
VERTEX
  5
2F8
330
2F2
100
AcDbEntity
  8
0
 62
     0
100
AcDbFaceRecord
 10
0.0
 20
0.0
 30
0.0
 70
   128
 71
    -2
 72
     1
 73
     4
  0
SEQEND
  5
2F9
330
2F2
100
AcDbEntity
  8
0
 62
     0
  0
LINE
  5
2FA
330
1F
100
AcDbEntity
  8
0
 62
   253
100
AcDbLine
 10
121.76
 20
-1.640000000000543
 30
25.11052362656889
 11
121.76
 21
-1.640000000000398
 31
15.1105236265689
  0
LINE
  5
2FB
330
1F
100
AcDbEntity
  8
0
 62
     0
100
AcDbLine
 10
121.76
 20
-1.640000000000543
 30
25.11052362656889
 11
121.7599999999999
 21
-0.820000000000483
 31
25.11052362656891
  0
LINE
  5
2FC
330
1F
100
AcDbEntity
  8
0
 62
   253
100
AcDbLine
 10
121.7599999999999
 20
-0.820000000000483
 30
25.11052362656891
 11
121.76
 21
-0.820000000000379
 31
15.11052362656891
  0
LINE
  5
2FD
330
1F
100
AcDbEntity
  8
0
 62
   253
100
AcDbLine
 10
121.76
 20
-0.820000000000379
 30
15.11052362656891
 11
121.76
 21
-1.640000000000398
 31
15.1105236265689
  0
POLYLINE
  5
2FE
330
1F
100
AcDbEntity
  8
0
 62
   253
100
AcDbPolyFaceMesh
 66
     1
 10
0.0
 20
0.0
 30
0.0
 70
    64
 71
     4
 72
     2
1001
ACAD_MATERIAL_MAPPER
1070
     1
1070
     1
1070
     1
1011
-0.0000000000002086
1021
0.0000000000019105
1031
0.0
1011
2.539999999999793
1021
0.0000000000019105
1031
0.0
1011
-0.0000000000002086
1021
2.54000000000191
1031
0.0
1011
-0.0000000000002086
1021
0.0000000000019105
1031
1.0
  0
VERTEX
  5
2FF
330
2FE
100
AcDbEntity
  8
0
 62
   253
100
AcDbVertex
100
AcDbPolyFaceMeshVertex
 10
121.76
 20
-1.640000000001203
 30
86.79999999999988
 70
   192
  0
VERTEX
  5
300
330
2FE
100
AcDbEntity
  8
0
 62
   253
100
AcDbVertex
100
AcDbPolyFaceMeshVertex
 10
190.3800000000001
 20
-0.8200000000010016
 30
86.7999999999999
 70
   192
  0
VERTEX
  5
301
330
2FE
100
AcDbEntity
  8
0
 62
   253
100
AcDbVertex
100
AcDbPolyFaceMeshVertex
 10
121.7599999999999
 20
-0.8200000000011503
 30
86.79999999999987
 70
   192
  0
VERTEX
  5
302
330
2FE
100
AcDbEntity
  8
0
 62
   253
100
AcDbVertex
100
AcDbPolyFaceMeshVertex
 10
190.3799999999999
 20
-1.640000000001167
 30
86.79999999999993
 70
   192
  0
VERTEX
  5
303
330
2FE
100
AcDbEntity
  8
0
 62
   253
100
AcDbFaceRecord
 10
0.0
 20
0.0
 30
0.0
 70
   128
 71
    -1
 72
     2
 73
     3
  0
VERTEX
  5
304
330
2FE
100
AcDbEntity
  8
0
 62
   253
100
AcDbFaceRecord
 10
0.0
 20
0.0
 30
0.0
 70
   128
 71
    -2
 72
     1
 73
     4
  0
SEQEND
  5
305
330
2FE
100
AcDbEntity
  8
0
 62
   253
  0
LINE
  5
306
330
1F
100
AcDbEntity
  8
0
 62
   253
100
AcDbLine
 10
121.76
 20
-1.640000000001203
 30
86.79999999999988
 11
190.3799999999999
 21
-1.640000000001167
 31
86.79999999999993
  0
LINE
  5
307
330
1F
100
AcDbEntity
  8
0
 62
   253
100
AcDbLine
 10
190.3800000000001
 20
-0.8200000000010016
 30
86.7999999999999
 11
190.3799999999999
 21
-1.640000000001167
 31
86.79999999999993
  0
LINE
  5
308
330
1F
100
AcDbEntity
  8
0
 62
   253
100
AcDbLine
 10
121.7599999999999
 20
-0.8200000000011503
 30
86.79999999999987
 11
190.3800000000001
 21
-0.8200000000010016
 31
86.7999999999999
  0
LINE
  5
309
330
1F
100
AcDbEntity
  8
0
 62
   253
100
AcDbLine
 10
121.7599999999999
 20
-0.8200000000011503
 30
86.79999999999987
 11
121.76
 21
-1.640000000001203
 31
86.79999999999988
  0
POLYLINE
  5
30A
330
1F
100
AcDbEntity
  8
0
 62
   253
100
AcDbPolyFaceMesh
 66
     1
 10
0.0
 20
0.0
 30
0.0
 70
    64
 71
     4
 72
     2
1001
ACAD_MATERIAL_MAPPER
1070
     1
1070
     1
1070
     1
1011
-0.0000000000000378
1021
-0.0000000000002487
1031
0.0
1011
-2.540000000000037
1021
-0.0000000000002487
1031
0.0
1011
-0.0000000000000378
1021
2.539999999999751
1031
0.0
1011
-0.0000000000000378
1021
-0.0000000000002487
1031
1.0
  0
VERTEX
  5
30B
330
30A
100
AcDbEntity
  8
0
 62
   253
100
AcDbVertex
100
AcDbPolyFaceMeshVertex
 10
50.26000000000004
 20
-0.8200000000003398
 30
15.11052362656891
 70
   192
  0
VERTEX
  5
30C
330
30A
100
AcDbEntity
  8
0
 62
   253
100
AcDbVertex
100
AcDbPolyFaceMeshVertex
 10
121.2799999999999
 20
-1.640000000000406
 30
15.11052362656889
 70
   192
  0
VERTEX
  5
30D
330
30A
100
AcDbEntity
  8
0
 62
   253
100
AcDbVertex
100
AcDbPolyFaceMeshVertex
 10
50.26000000000003
 20
-1.640000000000461
 30
15.11052362656889
 70
   192
  0
VERTEX
  5
30E
330
30A
100
AcDbEntity
  8
0
 62
   253
100
AcDbVertex
100
AcDbPolyFaceMeshVertex
 10
121.28
 20
-0.820000000000324
 30
15.11052362656891
 70
   192
  0
VERTEX
  5
30F
330
30A
100
AcDbEntity
  8
0
 62
   253
100
AcDbFaceRecord
 10
0.0
 20
0.0
 30
0.0
 70
   128
 71
    -1
 72
     2
 73
     3
  0
VERTEX
  5
310
330
30A
100
AcDbEntity
  8
0
 62
   253
100
AcDbFaceRecord
 10
0.0
 20
0.0
 30
0.0
 70
   128
 71
    -2
 72
     1
 73
     4
  0
SEQEND
  5
311
330
30A
100
AcDbEntity
  8
0
 62
   253
  0
LINE
  5
312
330
1F
100
AcDbEntity
  8
0
 62
   253
100
AcDbLine
 10
121.2799999999999
 20
-1.640000000000406
 30
15.11052362656889
 11
50.26000000000003
 21
-1.640000000000461
 31
15.11052362656889
  0
LINE
  5
313
330
1F
100
AcDbEntity
  8
0
 62
   253
100
AcDbLine
 10
50.26000000000004
 20
-0.8200000000003398
 30
15.11052362656891
 11
50.26000000000003
 21
-1.640000000000461
 31
15.11052362656889
  0
LINE
  5
314
330
1F
100
AcDbEntity
  8
0
 62
   253
100
AcDbLine
 10
121.28
 20
-0.820000000000324
 30
15.11052362656891
 11
50.26000000000004
 21
-0.8200000000003398
 31
15.11052362656891
  0
LINE
  5
315
330
1F
100
AcDbEntity
  8
0
 62
   253
100
AcDbLine
 10
121.28
 20
-0.820000000000324
 30
15.11052362656891
 11
121.2799999999999
 21
-1.640000000000406
 31
15.11052362656889
  0
POLYLINE
  5
316
330
1F
100
AcDbEntity
  8
0
 62
     0
100
AcDbPolyFaceMesh
 66
     1
 10
0.0
 20
0.0
 30
0.0
 70
    64
 71
     4
 72
     2
1001
ACAD_MATERIAL_MAPPER
1070
     1
1070
     1
1070
     1
1011
0.0
1021
-0.0000000000008448
1031
0.0
1011
-2.54
1021
-0.0000000000008448
1031
0.0
1011
0.0
1021
2.539999999999155
1031
0.0
1011
0.0
1021
-0.0000000000008448
1031
1.0
  0
VERTEX
  5
317
330
316
100
AcDbEntity
  8
0
 62
     0
100
AcDbVertex
100
AcDbPolyFaceMeshVertex
 10
39.78000000000007
 20
-0.8200000000009315
 30
76.79999999999987
 70
   192
  0
VERTEX
  5
318
330
316
100
AcDbEntity
  8
0
 62
     0
100
AcDbVertex
100
AcDbPolyFaceMeshVertex
 10
10.23999999999992
 20
-1.640000000000997
 30
76.79999999999986
 70
   192
  0
VERTEX
  5
319
330
316
100
AcDbEntity
  8
0
 62
     0
100
AcDbVertex
100
AcDbPolyFaceMeshVertex
 10
10.23999999999991
 20
-0.8200000000008941
 30
76.79999999999987
 70
   192
  0
VERTEX
  5
31A
330
316
100
AcDbEntity
  8
0
 62
     0
100
AcDbVertex
100
AcDbPolyFaceMeshVertex
 10
39.78000000000009
 20
-1.640000000001073
 30
76.79999999999986
 70
   192
  0
VERTEX
  5
31B
330
316
100
AcDbEntity
  8
0
 62
     0
100
AcDbFaceRecord
 10
0.0
 20
0.0
 30
0.0
 70
   128
 71
    -1
 72
     2
 73
     3
  0
VERTEX
  5
31C
330
316
100
AcDbEntity
  8
0
 62
     0
100
AcDbFaceRecord
 10
0.0
 20
0.0
 30
0.0
 70
   128
 71
    -2
 72
     1
 73
     4
  0
SEQEND
  5
31D
330
316
100
AcDbEntity
  8
0
 62
     0
  0
LINE
  5
31E
330
1F
100
AcDbEntity
  8
0
 62
   253
100
AcDbLine
 10
10.23999999999991
 20
-0.8200000000008941
 30
76.79999999999987
 11
39.78000000000007
 21
-0.8200000000009315
 31
76.79999999999987
  0
LINE
  5
31F
330
1F
100
AcDbEntity
  8
0
 62
   253
100
AcDbLine
 10
39.78000000000007
 20
-0.8200000000009315
 30
76.79999999999987
 11
39.78000000000009
 21
-1.640000000001073
 31
76.79999999999986
  0
LINE
  5
320
330
1F
100
AcDbEntity
  8
0
 62
   253
100
AcDbLine
 10
10.23999999999992
 20
-1.640000000000997
 30
76.79999999999986
 11
39.78000000000009
 21
-1.640000000001073
 31
76.79999999999986
  0
LINE
  5
321
330
1F
100
AcDbEntity
  8
0
 62
   253
100
AcDbLine
 10
10.23999999999991
 20
-0.8200000000008941
 30
76.79999999999987
 11
10.23999999999992
 21
-1.640000000000997
 31
76.79999999999986
  0
POLYLINE
  5
322
330
1F
100
AcDbEntity
  8
0
 62
     0
100
AcDbPolyFaceMesh
 66
     1
 10
0.0
 20
0.0
 30
0.0
 70
    64
 71
     4
 72
     2
1001
ACAD_MATERIAL_MAPPER
1070
     1
1070
     1
1070
     1
1011
0.0
1021
0.0000000000000156
1031
-0.000000000000025
1011
0.0
1021
2.540000000000016
1031
-0.000000000000025
1011
0.0
1021
0.0000000000000156
1031
2.539999999999975
1011
1.0
1021
0.0000000000000156
1031
-0.000000000000025
  0
VERTEX
  5
323
330
322
100
AcDbEntity
  8
0
 62
     0
100
AcDbVertex
100
AcDbPolyFaceMeshVertex
 10
190.38
 20
-1.640000000000402
 30
15.11052362656889
 70
   192
  0
VERTEX
  5
324
330
322
100
AcDbEntity
  8
0
 62
     0
100
AcDbVertex
100
AcDbPolyFaceMeshVertex
 10
190.3800000000001
 20
-0.8200000000010016
 30
86.7999999999999
 70
   192
  0
VERTEX
  5
325
330
322
100
AcDbEntity
  8
0
 62
     0
100
AcDbVertex
100
AcDbPolyFaceMeshVertex
 10
190.3799999999999
 20
-1.640000000001167
 30
86.79999999999993
 70
   192
  0
VERTEX
  5
326
330
322
100
AcDbEntity
  8
0
 62
     0
100
AcDbVertex
100
AcDbPolyFaceMeshVertex
 10
190.38
 20
-0.8200000000003539
 30
15.11052362656891
 70
   192
  0
VERTEX
  5
327
330
322
100
AcDbEntity
  8
0
 62
     0
100
AcDbFaceRecord
 10
0.0
 20
0.0
 30
0.0
 70
   128
 71
    -1
 72
     2
 73
     3
  0
VERTEX
  5
328
330
322
100
AcDbEntity
  8
0
 62
     0
100
AcDbFaceRecord
 10
0.0
 20
0.0
 30
0.0
 70
   128
 71
    -2
 72
     1
 73
     4
  0
SEQEND
  5
329
330
322
100
AcDbEntity
  8
0
 62
     0
  0
LINE
  5
32A
330
1F
100
AcDbEntity
  8
0
 62
   253
100
AcDbLine
 10
190.3799999999999
 20
-1.640000000001167
 30
86.79999999999993
 11
190.38
 21
-1.640000000000402
 31
15.11052362656889
  0
LINE
  5
32B
330
1F
100
AcDbEntity
  8
0
 62
   253
100
AcDbLine
 10
190.38
 20
-0.8200000000003539
 30
15.11052362656891
 11
190.38
 21
-1.640000000000402
 31
15.11052362656889
  0
LINE
  5
32C
330
1F
100
AcDbEntity
  8
0
 62
   253
100
AcDbLine
 10
190.3800000000001
 20
-0.8200000000010016
 30
86.7999999999999
 11
190.38
 21
-0.8200000000003539
 31
15.11052362656891
  0
LINE
  5
32D
330
1F
100
AcDbEntity
  8
0
 62
   253
100
AcDbLine
 10
190.3800000000001
 20
-0.8200000000010016
 30
86.7999999999999
 11
190.3799999999999
 21
-1.640000000001167
 31
86.79999999999993
  0
POLYLINE
  5
32E
330
1F
100
AcDbEntity
  8
0
 62
   253
100
AcDbPolyFaceMesh
 66
     1
 10
0.0
 20
0.0
 30
0.0
 70
    64
 71
     4
 72
     2
1001
ACAD_MATERIAL_MAPPER
1070
     1
1070
     1
1070
     1
1011
0.0000000000003633
1021
0.0
1031
0.0000000000000908
1011
2.540000000000366
1021
0.0
1031
0.0000000000000908
1011
0.0000000000003618
1021
0.0
1031
2.540000000000092
1011
0.0000000000003633
1021
1.0
1031
0.0000000000000908
  0
VERTEX
  5
32F
330
32E
100
AcDbEntity
  8
0
 62
   253
100
AcDbVertex
100
AcDbPolyFaceMeshVertex
 10
131.7599999999999
 20
-0.8200000000009824
 30
76.79999999999987
 70
   192
  0
VERTEX
  5
330
330
32E
100
AcDbEntity
  8
0
 62
   253
100
AcDbVertex
100
AcDbPolyFaceMeshVertex
 10
121.7599999999999
 20
-0.820000000000483
 30
25.11052362656891
 70
   192
  0
VERTEX
  5
331
330
32E
100
AcDbEntity
  8
0
 62
   253
100
AcDbVertex
100
AcDbPolyFaceMeshVertex
 10
131.7599999999999
 20
-0.8200000000004475
 30
25.11052362656891
 70
   192
  0
VERTEX
  5
332
330
32E
100
AcDbEntity
  8
0
 62
   253
100
AcDbVertex
100
AcDbPolyFaceMeshVertex
 10
121.7599999999999
 20
-0.8200000000010811
 30
76.7999999999999
 70
   192
  0
VERTEX
  5
333
330
32E
100
AcDbEntity
  8
0
 62
   253
100
AcDbFaceRecord
 10
0.0
 20
0.0
 30
0.0
 70
   128
 71
    -1
 72
     2
 73
     3
  0
VERTEX
  5
334
330
32E
100
AcDbEntity
  8
0
 62
   253
100
AcDbFaceRecord
 10
0.0
 20
0.0
 30
0.0
 70
   128
 71
    -2
 72
     1
 73
     4
  0
SEQEND
  5
335
330
32E
100
AcDbEntity
  8
0
 62
   253
  0
LINE
  5
336
330
1F
100
AcDbEntity
  8
0
 62
   253
100
AcDbLine
 10
131.7599999999999
 20
-0.8200000000004475
 30
25.11052362656891
 11
121.7599999999999
 21
-0.820000000000483
 31
25.11052362656891
  0
LINE
  5
337
330
1F
100
AcDbEntity
  8
0
 62
   253
100
AcDbLine
 10
131.7599999999999
 20
-0.8200000000004475
 30
25.11052362656891
 11
131.7599999999999
 21
-0.8200000000009824
 31
76.79999999999987
  0
LINE
  5
338
330
1F
100
AcDbEntity
  8
0
 62
   253
100
AcDbLine
 10
121.7599999999999
 20
-0.8200000000010811
 30
76.7999999999999
 11
131.7599999999999
 21
-0.8200000000009824
 31
76.79999999999987
  0
LINE
  5
339
330
1F
100
AcDbEntity
  8
0
 62
   253
100
AcDbLine
 10
121.7599999999999
 20
-0.8200000000010811
 30
76.7999999999999
 11
121.7599999999999
 21
-0.820000000000483
 31
25.11052362656891
  0
POLYLINE
  5
33A
330
1F
100
AcDbEntity
  8
0
 62
     0
100
AcDbPolyFaceMesh
 66
     1
 10
0.0
 20
0.0
 30
0.0
 70
    64
 71
     4
 72
     2
1001
ACAD_MATERIAL_MAPPER
1070
     1
1070
     1
1070
     1
1011
0.0
1021
0.0000000000000103
1031
0.0
1011
0.0
1021
2.540000000000012
1031
0.0
1011
0.0
1021
0.0000000000000103
1031
2.54
1011
1.0
1021
0.0000000000000103
1031
0.0
  0
VERTEX
  5
33B
330
33A
100
AcDbEntity
  8
0
 62
     0
100
AcDbVertex
100
AcDbPolyFaceMeshVertex
 10
131.76
 20
-1.640000000000473
 30
25.1105236265689
 70
   192
  0
VERTEX
  5
33C
330
33A
100
AcDbEntity
  8
0
 62
     0
100
AcDbVertex
100
AcDbPolyFaceMeshVertex
 10
131.7599999999999
 20
-0.8200000000009824
 30
76.79999999999987
 70
   192
  0
VERTEX
  5
33D
330
33A
100
AcDbEntity
  8
0
 62
     0
100
AcDbVertex
100
AcDbPolyFaceMeshVertex
 10
131.76
 20
-1.640000000001128
 30
76.79999999999987
 70
   192
  0
VERTEX
  5
33E
330
33A
100
AcDbEntity
  8
0
 62
     0
100
AcDbVertex
100
AcDbPolyFaceMeshVertex
 10
131.7599999999999
 20
-0.8200000000004475
 30
25.11052362656891
 70
   192
  0
VERTEX
  5
33F
330
33A
100
AcDbEntity
  8
0
 62
     0
100
AcDbFaceRecord
 10
0.0
 20
0.0
 30
0.0
 70
   128
 71
    -1
 72
     2
 73
     3
  0
VERTEX
  5
340
330
33A
100
AcDbEntity
  8
0
 62
     0
100
AcDbFaceRecord
 10
0.0
 20
0.0
 30
0.0
 70
   128
 71
    -2
 72
     1
 73
     4
  0
SEQEND
  5
341
330
33A
100
AcDbEntity
  8
0
 62
     0
  0
LINE
  5
342
330
1F
100
AcDbEntity
  8
0
 62
   253
100
AcDbLine
 10
131.7599999999999
 20
-0.8200000000004475
 30
25.11052362656891
 11
131.7599999999999
 21
-0.8200000000009824
 31
76.79999999999987
  0
LINE
  5
343
330
1F
100
AcDbEntity
  8
0
 62
     0
100
AcDbLine
 10
131.76
 20
-1.640000000001128
 30
76.79999999999987
 11
131.7599999999999
 21
-0.8200000000009824
 31
76.79999999999987
  0
LINE
  5
344
330
1F
100
AcDbEntity
  8
0
 62
   253
100
AcDbLine
 10
131.76
 20
-1.640000000000473
 30
25.1105236265689
 11
131.76
 21
-1.640000000001128
 31
76.79999999999987
  0
LINE
  5
345
330
1F
100
AcDbEntity
  8
0
 62
     0
100
AcDbLine
 10
131.76
 20
-1.640000000000473
 30
25.1105236265689
 11
131.7599999999999
 21
-0.8200000000004475
 31
25.11052362656891
  0
POLYLINE
  5
346
330
1F
100
AcDbEntity
  8
0
 62
   253
100
AcDbPolyFaceMesh
 66
     1
 10
0.0
 20
0.0
 30
0.0
 70
    64
 71
     4
 72
     2
1001
ACAD_MATERIAL_MAPPER
1070
     1
1070
     1
1070
     1
1011
-0.0000000000000521
1021
-0.0000000000002493
1031
0.0
1011
-2.540000000000053
1021
-0.0000000000002493
1031
0.0
1011
-0.0000000000001043
1021
2.539999999999751
1031
0.0
1011
-0.0000000000000521
1021
-0.0000000000002493
1031
1.0
  0
VERTEX
  5
347
330
346
100
AcDbEntity
  8
0
 62
   253
100
AcDbVertex
100
AcDbPolyFaceMeshVertex
 10
190.38
 20
-0.8200000000003539
 30
15.11052362656891
 70
   192
  0
VERTEX
  5
348
330
346
100
AcDbEntity
  8
0
 62
   253
100
AcDbVertex
100
AcDbPolyFaceMeshVertex
 10
121.76
 20
-1.640000000000398
 30
15.1105236265689
 70
   192
  0
VERTEX
  5
349
330
346
100
AcDbEntity
  8
0
 62
   253
100
AcDbVertex
100
AcDbPolyFaceMeshVertex
 10
121.76
 20
-0.820000000000379
 30
15.11052362656891
 70
   192
  0
VERTEX
  5
34A
330
346
100
AcDbEntity
  8
0
 62
   253
100
AcDbVertex
100
AcDbPolyFaceMeshVertex
 10
190.38
 20
-1.640000000000402
 30
15.11052362656889
 70
   192
  0
VERTEX
  5
34B
330
346
100
AcDbEntity
  8
0
 62
   253
100
AcDbFaceRecord
 10
0.0
 20
0.0
 30
0.0
 70
   128
 71
    -1
 72
     2
 73
     3
  0
VERTEX
  5
34C
330
346
100
AcDbEntity
  8
0
 62
   253
100
AcDbFaceRecord
 10
0.0
 20
0.0
 30
0.0
 70
   128
 71
    -2
 72
     1
 73
     4
  0
SEQEND
  5
34D
330
346
100
AcDbEntity
  8
0
 62
   253
  0
LINE
  5
34E
330
1F
100
AcDbEntity
  8
0
 62
   253
100
AcDbLine
 10
190.38
 20
-1.640000000000402
 30
15.11052362656889
 11
121.76
 21
-1.640000000000398
 31
15.1105236265689
  0
LINE
  5
34F
330
1F
100
AcDbEntity
  8
0
 62
   253
100
AcDbLine
 10
121.76
 20
-0.820000000000379
 30
15.11052362656891
 11
121.76
 21
-1.640000000000398
 31
15.1105236265689
  0
LINE
  5
350
330
1F
100
AcDbEntity
  8
0
 62
   253
100
AcDbLine
 10
190.38
 20
-0.8200000000003539
 30
15.11052362656891
 11
121.76
 21
-0.820000000000379
 31
15.11052362656891
  0
LINE
  5
351
330
1F
100
AcDbEntity
  8
0
 62
   253
100
AcDbLine
 10
190.38
 20
-0.8200000000003539
 30
15.11052362656891
 11
190.38
 21
-1.640000000000402
 31
15.11052362656889
  0
POLYLINE
  5
352
330
1F
100
AcDbEntity
  8
0
 62
   253
100
AcDbPolyFaceMesh
 66
     1
 10
0.0
 20
0.0
 30
0.0
 70
    64
 71
     4
 72
     2
1001
ACAD_MATERIAL_MAPPER
1070
     1
1070
     1
1070
     1
1011
0.0
1021
-0.0000000000002702
1031
0.0
1011
-2.539999999999999
1021
-0.0000000000002702
1031
0.0
1011
0.0
1021
2.53999999999973
1031
0.0
1011
0.0
1021
-0.0000000000002702
1031
1.0
  0
VERTEX
  5
353
330
352
100
AcDbEntity
  8
0
 62
   253
100
AcDbVertex
100
AcDbPolyFaceMeshVertex
 10
309.7599999999998
 20
-0.000000000000379
 30
15.11052362656892
 70
   192
  0
VERTEX
  5
354
330
352
100
AcDbEntity
  8
0
 62
   253
100
AcDbVertex
100
AcDbPolyFaceMeshVertex
 10
260.26
 20
-1.6400000000004
 30
15.11052362656889
 70
   192
  0
VERTEX
  5
355
330
352
100
AcDbEntity
  8
0
 62
   253
100
AcDbVertex
100
AcDbPolyFaceMeshVertex
 10
260.2599999999998
 20
-0.0000000000002955
 30
15.11052362656892
 70
   192
  0
VERTEX
  5
356
330
352
100
AcDbEntity
  8
0
 62
   253
100
AcDbVertex
100
AcDbPolyFaceMeshVertex
 10
309.7599999999999
 20
-1.640000000000373
 30
15.11052362656889
 70
   192
  0
VERTEX
  5
357
330
352
100
AcDbEntity
  8
0
 62
   253
100
AcDbFaceRecord
 10
0.0
 20
0.0
 30
0.0
 70
   128
 71
    -1
 72
     2
 73
     3
  0
VERTEX
  5
358
330
352
100
AcDbEntity
  8
0
 62
   253
100
AcDbFaceRecord
 10
0.0
 20
0.0
 30
0.0
 70
   128
 71
    -2
 72
     1
 73
     4
  0
SEQEND
  5
359
330
352
100
AcDbEntity
  8
0
 62
   253
  0
LINE
  5
35A
330
1F
100
AcDbEntity
  8
0
 62
   253
100
AcDbLine
 10
309.7599999999998
 20
-0.000000000000379
 30
15.11052362656892
 11
260.2599999999998
 21
-0.0000000000002955
 31
15.11052362656892
  0
LINE
  5
35B
330
1F
100
AcDbEntity
  8
0
 62
   253
100
AcDbLine
 10
309.7599999999998
 20
-0.000000000000379
 30
15.11052362656892
 11
309.7599999999999
 21
-1.640000000000373
 31
15.11052362656889
  0
LINE
  5
35C
330
1F
100
AcDbEntity
  8
0
 62
   253
100
AcDbLine
 10
309.7599999999999
 20
-1.640000000000373
 30
15.11052362656889
 11
260.26
 21
-1.6400000000004
 31
15.11052362656889
  0
LINE
  5
35D
330
1F
100
AcDbEntity
  8
0
 62
   253
100
AcDbLine
 10
260.2599999999998
 20
-0.0000000000002955
 30
15.11052362656892
 11
260.26
 21
-1.6400000000004
 31
15.11052362656889
  0
POLYLINE
  5
35E
330
1F
100
AcDbEntity
  8
0
 62
     0
100
AcDbPolyFaceMesh
 66
     1
 10
0.0
 20
0.0
 30
0.0
 70
    64
 71
     4
 72
     2
1001
ACAD_MATERIAL_MAPPER
1070
     1
1070
     1
1070
     1
1011
0.0000000000000066
1021
0.0
1031
0.0000000000016152
1011
-2.539999999999993
1021
0.0
1031
0.0000000000016152
1011
0.0000000000000066
1021
0.0
1031
2.540000000001626
1011
0.0000000000000066
1021
1.0
1031
0.0000000000016152
  0
VERTEX
  5
35F
330
35E
100
AcDbEntity
  8
0
 62
     0
100
AcDbVertex
100
AcDbPolyFaceMeshVertex
 10
-0.000000000000002
 20
46.57599999999917
 30
90.00000000000041
 70
   192
  0
VERTEX
  5
360
330
35E
100
AcDbEntity
  8
0
 62
     0
100
AcDbVertex
100
AcDbPolyFaceMeshVertex
 10
310.0
 20
46.57599999999896
 30
87.00000000000045
 70
   192
  0
VERTEX
  5
361
330
35E
100
AcDbEntity
  8
0
 62
     0
100
AcDbVertex
100
AcDbPolyFaceMeshVertex
 10
-0.0000000000000142
 20
46.57599999999931
 30
87.00000000000045
 70
   192
  0
VERTEX
  5
362
330
35E
100
AcDbEntity
  8
0
 62
     0
100
AcDbVertex
100
AcDbPolyFaceMeshVertex
 10
310.0
 20
46.57599999999896
 30
90.00000000000041
 70
   192
  0
VERTEX
  5
363
330
35E
100
AcDbEntity
  8
0
 62
     0
100
AcDbFaceRecord
 10
0.0
 20
0.0
 30
0.0
 70
   128
 71
    -1
 72
     2
 73
     3
  0
VERTEX
  5
364
330
35E
100
AcDbEntity
  8
0
 62
     0
100
AcDbFaceRecord
 10
0.0
 20
0.0
 30
0.0
 70
   128
 71
    -2
 72
     1
 73
     4
  0
SEQEND
  5
365
330
35E
100
AcDbEntity
  8
0
 62
     0
  0
LINE
  5
366
330
1F
100
AcDbEntity
  8
0
 62
   253
100
AcDbLine
 10
310.0
 20
46.57599999999896
 30
90.00000000000041
 11
310.0
 21
46.57599999999896
 31
87.00000000000045
  0
LINE
  5
367
330
1F
100
AcDbEntity
  8
0
 62
   253
100
AcDbLine
 10
310.0
 20
46.57599999999896
 30
87.00000000000045
 11
-0.0000000000000142
 21
46.57599999999931
 31
87.00000000000045
  0
LINE
  5
368
330
1F
100
AcDbEntity
  8
0
 62
   253
100
AcDbLine
 10
-0.0000000000000142
 20
46.57599999999931
 30
87.00000000000045
 11
-0.000000000000002
 21
46.57599999999917
 31
90.00000000000041
  0
LINE
  5
36A
330
1F
100
AcDbEntity
  8
0
 62
   178
100
AcDbLine
 10
310.0
 20
46.57599999999896
 30
90.00000000000041
 11
-0.000000000000002
 21
46.57599999999917
 31
90.00000000000041
  0
POLYLINE
  5
36B
330
1F
100
AcDbEntity
  8
0
 62
     0
100
AcDbPolyFaceMesh
 66
     1
 10
0.0
 20
0.0
 30
0.0
 70
    64
 71
     4
 72
     2
1001
ACAD_MATERIAL_MAPPER
1070
     1
1070
     1
1070
     1
1011
0.0
1021
-0.0000000000010928
1031
0.0
1011
2.54
1021
-0.0000000000010927
1031
0.0
1011
0.0
1021
2.539999999998907
1031
0.0
1011
0.0
1021
-0.0000000000010928
1031
1.0
  0
VERTEX
  5
36C
330
36B
100
AcDbEntity
  8
0
 62
     0
100
AcDbVertex
100
AcDbPolyFaceMeshVertex
 10
-0.0000000000000006
 20
-2.460000000001101
 30
89.99999999999983
 70
   192
  0
VERTEX
  5
36D
330
36B
100
AcDbEntity
  8
0
 62
     0
100
AcDbVertex
100
AcDbPolyFaceMeshVertex
 10
310.0
 20
46.57599999999896
 30
90.00000000000041
 70
   192
  0
VERTEX
  5
36E
330
36B
100
AcDbEntity
  8
0
 62
     0
100
AcDbVertex
100
AcDbPolyFaceMeshVertex
 10
-0.000000000000002
 20
46.57599999999917
 30
90.00000000000041
 70
   192
  0
VERTEX
  5
36F
330
36B
100
AcDbEntity
  8
0
 62
     0
100
AcDbVertex
100
AcDbPolyFaceMeshVertex
 10
309.9999999999996
 20
-2.460000000001306
 30
89.99999999999983
 70
   192
  0
VERTEX
  5
370
330
36B
100
AcDbEntity
  8
0
 62
     0
100
AcDbFaceRecord
 10
0.0
 20
0.0
 30
0.0
 70
   128
 71
    -1
 72
     2
 73
     3
  0
VERTEX
  5
371
330
36B
100
AcDbEntity
  8
0
 62
     0
100
AcDbFaceRecord
 10
0.0
 20
0.0
 30
0.0
 70
   128
 71
    -2
 72
     1
 73
     4
  0
SEQEND
  5
372
330
36B
100
AcDbEntity
  8
0
 62
     0
  0
LINE
  5
373
330
1F
100
AcDbEntity
  8
0
 62
   178
100
AcDbLine
 10
309.9999999999996
 20
-2.460000000001306
 30
89.99999999999983
 11
310.0
 21
46.57599999999896
 31
90.00000000000041
  0
LINE
  5
374
330
1F
100
AcDbEntity
  8
0
 62
   178
100
AcDbLine
 10
310.0
 20
46.57599999999896
 30
90.00000000000041
 11
-0.000000000000002
 21
46.57599999999917
 31
90.00000000000041
  0
LINE
  5
375
330
1F
100
AcDbEntity
  8
0
 62
   178
100
AcDbLine
 10
-0.0000000000000006
 20
-2.460000000001101
 30
89.99999999999983
 11
-0.000000000000002
 21
46.57599999999917
 31
90.00000000000041
  0
LINE
  5
376
330
1F
100
AcDbEntity
  8
0
 62
   178
100
AcDbLine
 10
309.9999999999996
 20
-2.460000000001306
 30
89.99999999999983
 11
-0.0000000000000006
 21
-2.460000000001101
 31
89.99999999999983
  0
POLYLINE
  5
377
330
1F
100
AcDbEntity
  8
0
 62
   253
100
AcDbPolyFaceMesh
 66
     1
 10
0.0
 20
0.0
 30
0.0
 70
    64
 71
     4
 72
     2
1001
ACAD_MATERIAL_MAPPER
1070
     1
1070
     1
1070
     1
1011
-0.0000000000000521
1021
-0.0000000000001663
1031
0.0
1011
-2.540000000000051
1021
-0.0000000000001663
1031
0.0
1011
-0.0000000000000521
1021
2.539999999999834
1031
0.0
1011
-0.0000000000000521
1021
-0.0000000000001663
1031
1.0
  0
VERTEX
  5
378
330
377
100
AcDbEntity
  8
0
 62
   253
100
AcDbVertex
100
AcDbPolyFaceMeshVertex
 10
190.3799999999999
 20
-0.0000000000003285
 30
15.11052362656892
 70
   192
  0
VERTEX
  5
379
330
377
100
AcDbEntity
  8
0
 62
   253
100
AcDbVertex
100
AcDbPolyFaceMeshVertex
 10
121.76
 20
-0.820000000000379
 30
15.11052362656891
 70
   192
  0
VERTEX
  5
37A
330
377
100
AcDbEntity
  8
0
 62
   253
100
AcDbVertex
100
AcDbPolyFaceMeshVertex
 10
121.7599999999999
 20
-0.0000000000003012
 30
15.11052362656892
 70
   192
  0
VERTEX
  5
37B
330
377
100
AcDbEntity
  8
0
 62
   253
100
AcDbVertex
100
AcDbPolyFaceMeshVertex
 10
190.38
 20
-0.8200000000003539
 30
15.11052362656891
 70
   192
  0
VERTEX
  5
37C
330
377
100
AcDbEntity
  8
0
 62
   253
100
AcDbFaceRecord
 10
0.0
 20
0.0
 30
0.0
 70
   128
 71
    -1
 72
     2
 73
     3
  0
VERTEX
  5
37D
330
377
100
AcDbEntity
  8
0
 62
   253
100
AcDbFaceRecord
 10
0.0
 20
0.0
 30
0.0
 70
   128
 71
    -2
 72
     1
 73
     4
  0
SEQEND
  5
37E
330
377
100
AcDbEntity
  8
0
 62
   253
  0
LINE
  5
37F
330
1F
100
AcDbEntity
  8
0
 62
   253
100
AcDbLine
 10
190.3799999999999
 20
-0.0000000000003285
 30
15.11052362656892
 11
121.7599999999999
 21
-0.0000000000003012
 31
15.11052362656892
  0
LINE
  5
380
330
1F
100
AcDbEntity
  8
0
 62
   253
100
AcDbLine
 10
190.3799999999999
 20
-0.0000000000003285
 30
15.11052362656892
 11
190.38
 21
-0.8200000000003539
 31
15.11052362656891
  0
LINE
  5
381
330
1F
100
AcDbEntity
  8
0
 62
   253
100
AcDbLine
 10
190.38
 20
-0.8200000000003539
 30
15.11052362656891
 11
121.76
 21
-0.820000000000379
 31
15.11052362656891
  0
LINE
  5
382
330
1F
100
AcDbEntity
  8
0
 62
   253
100
AcDbLine
 10
121.7599999999999
 20
-0.0000000000003012
 30
15.11052362656892
 11
121.76
 21
-0.820000000000379
 31
15.11052362656891
  0
POLYLINE
  5
383
330
1F
100
AcDbEntity
  8
0
 62
     0
100
AcDbPolyFaceMesh
 66
     1
 10
0.0
 20
0.0
 30
0.0
 70
    64
 71
     5
 72
     3
1001
ACAD_MATERIAL_MAPPER
1070
     1
1070
     1
1070
     1
1011
0.0
1021
0.0
1031
0.0
1011
0.0
1021
-2.54
1031
-0.0000000000000009
1011
0.0
1021
0.0
1031
2.54
1011
1.0
1021
0.0
1031
0.0
  0
VERTEX
  5
384
330
383
100
AcDbEntity
  8
0
 62
     0
100
AcDbVertex
100
AcDbPolyFaceMeshVertex
 10
-0.0000000000000142
 20
46.57599999999931
 30
87.00000000000045
 70
   192
  0
VERTEX
  5
385
330
383
100
AcDbEntity
  8
0
 62
     0
100
AcDbVertex
100
AcDbPolyFaceMeshVertex
 10
0.0
 20
-0.0000000000002527
 30
15.11052362656892
 70
   192
  0
VERTEX
  5
386
330
383
100
AcDbEntity
  8
0
 62
     0
100
AcDbVertex
100
AcDbPolyFaceMeshVertex
 10
0.0
 20
-0.0000000000010107
 30
86.99999999999989
 70
   192
  0
VERTEX
  5
387
330
383
100
AcDbEntity
  8
0
 62
     0
100
AcDbVertex
100
AcDbPolyFaceMeshVertex
 10
0.0
 20
0.0
 30
0.0
 70
   192
  0
VERTEX
  5
388
330
383
100
AcDbEntity
  8
0
 62
     0
100
AcDbVertex
100
AcDbPolyFaceMeshVertex
 10
-0.0000000000000125
 20
32.80000000000037
 30
0.0000000000005595
 70
   192
  0
VERTEX
  5
389
330
383
100
AcDbEntity
  8
0
 62
     0
100
AcDbFaceRecord
 10
0.0
 20
0.0
 30
0.0
 70
   128
 71
    -1
 72
     2
 73
     3
  0
VERTEX
  5
38A
330
383
100
AcDbEntity
  8
0
 62
     0
100
AcDbFaceRecord
 10
0.0
 20
0.0
 30
0.0
 70
   128
 71
    -2
 72
    -1
 73
     4
  0
VERTEX
  5
38B
330
383
100
AcDbEntity
  8
0
 62
     0
100
AcDbFaceRecord
 10
0.0
 20
0.0
 30
0.0
 70
   128
 71
    -4
 72
     1
 73
     5
  0
SEQEND
  5
38C
330
383
100
AcDbEntity
  8
0
 62
     0
  0
LINE
  5
38D
330
1F
100
AcDbEntity
  8
0
 62
   253
100
AcDbLine
 10
0.0
 20
-0.0000000000010107
 30
86.99999999999989
 11
-0.0000000000000142
 21
46.57599999999931
 31
87.00000000000045
  0
LINE
  5
38E
330
1F
100
AcDbEntity
  8
0
 62
   253
100
AcDbLine
 10
-0.0000000000000142
 20
46.57599999999931
 30
87.00000000000045
 11
-0.0000000000000125
 21
32.80000000000037
 31
0.0000000000005595
  0
LINE
  5
38F
330
1F
100
AcDbEntity
  8
0
 62
   253
100
AcDbLine
 10
0.0
 20
0.0
 30
0.0
 11
-0.0000000000000125
 21
32.80000000000037
 31
0.0000000000005595
  0
LINE
  5
390
330
1F
100
AcDbEntity
  8
0
 62
   253
100
AcDbLine
 10
0.0
 20
-0.0000000000002527
 30
15.11052362656892
 11
0.0
 21
0.0
 31
0.0
  0
LINE
  5
391
330
1F
100
AcDbEntity
  8
0
 62
   253
100
AcDbLine
 10
0.0
 20
-0.0000000000010107
 30
86.99999999999989
 11
0.0
 21
-0.0000000000002527
 31
15.11052362656892
  0
POLYLINE
  5
392
330
1F
100
AcDbEntity
  8
0
 62
   253
100
AcDbPolyFaceMesh
 66
     1
 10
0.0
 20
0.0
 30
0.0
 70
    64
 71
     4
 72
     2
1001
ACAD_MATERIAL_MAPPER
1070
     1
1070
     1
1070
     1
1011
0.0
1021
0.0
1031
0.0
1011
2.54
1021
0.0
1031
0.0
1011
0.0
1021
0.0
1031
2.540000000000012
1011
0.0
1021
1.0
1031
0.0
  0
VERTEX
  5
393
330
392
100
AcDbEntity
  8
0
 62
   253
100
AcDbVertex
100
AcDbPolyFaceMeshVertex
 10
49.77999999999989
 20
-0.0000000000003593
 30
14.99999999999993
 70
   192
  0
VERTEX
  5
394
330
392
100
AcDbEntity
  8
0
 62
   253
100
AcDbVertex
100
AcDbPolyFaceMeshVertex
 10
0.2399999999999452
 20
-0.0000000000002527
 30
15.11052362656892
 70
   192
  0
VERTEX
  5
395
330
392
100
AcDbEntity
  8
0
 62
   253
100
AcDbVertex
100
AcDbPolyFaceMeshVertex
 10
0.2399999999999452
 20
-0.0000000000002527
 30
14.99999999999993
 70
   192
  0
VERTEX
  5
396
330
392
100
AcDbEntity
  8
0
 62
   253
100
AcDbVertex
100
AcDbPolyFaceMeshVertex
 10
49.77999999999992
 20
-0.0000000000002773
 30
15.11052362656892
 70
   192
  0
VERTEX
  5
397
330
392
100
AcDbEntity
  8
0
 62
   253
100
AcDbFaceRecord
 10
0.0
 20
0.0
 30
0.0
 70
   128
 71
    -1
 72
     2
 73
     3
  0
VERTEX
  5
398
330
392
100
AcDbEntity
  8
0
 62
   253
100
AcDbFaceRecord
 10
0.0
 20
0.0
 30
0.0
 70
   128
 71
    -2
 72
     1
 73
     4
  0
SEQEND
  5
399
330
392
100
AcDbEntity
  8
0
 62
   253
  0
LINE
  5
39A
330
1F
100
AcDbEntity
  8
0
 62
   253
100
AcDbLine
 10
49.77999999999992
 20
-0.0000000000002773
 30
15.11052362656892
 11
0.2399999999999452
 21
-0.0000000000002527
 31
15.11052362656892
  0
LINE
  5
39B
330
1F
100
AcDbEntity
  8
0
 62
   253
100
AcDbLine
 10
0.2399999999999452
 20
-0.0000000000002527
 30
14.99999999999993
 11
0.2399999999999452
 21
-0.0000000000002527
 31
15.11052362656892
  0
LINE
  5
39C
330
1F
100
AcDbEntity
  8
0
 62
   253
100
AcDbLine
 10
49.77999999999989
 20
-0.0000000000003593
 30
14.99999999999993
 11
0.2399999999999452
 21
-0.0000000000002527
 31
14.99999999999993
  0
LINE
  5
39D
330
1F
100
AcDbEntity
  8
0
 62
   253
100
AcDbLine
 10
49.77999999999992
 20
-0.0000000000002773
 30
15.11052362656892
 11
49.77999999999989
 21
-0.0000000000003593
 31
14.99999999999993
  0
POLYLINE
  5
39E
330
1F
100
AcDbEntity
  8
0
 62
     0
100
AcDbPolyFaceMesh
 66
     1
 10
0.0
 20
0.0
 30
0.0
 70
    64
 71
     4
 72
     2
1001
ACAD_MATERIAL_MAPPER
1070
     1
1070
     1
1070
     1
1011
0.0
1021
0.0000000000000152
1031
0.0
1011
0.0
1021
-2.539999999999985
1031
0.0
1011
0.0
1021
0.0000000000000152
1031
2.54
1011
1.0
1021
0.0000000000000152
1031
0.0
  0
VERTEX
  5
39F
330
39E
100
AcDbEntity
  8
0
 62
     0
100
AcDbVertex
100
AcDbPolyFaceMeshVertex
 10
190.86
 20
-0.0000000000011776
 30
86.79999999999988
 70
   192
  0
VERTEX
  5
3A0
330
39E
100
AcDbEntity
  8
0
 62
     0
100
AcDbVertex
100
AcDbPolyFaceMeshVertex
 10
190.8599999999998
 20
-1.640000000000497
 30
15.1105236265689
 70
   192
  0
VERTEX
  5
3A1
330
39E
100
AcDbEntity
  8
0
 62
     0
100
AcDbVertex
100
AcDbPolyFaceMeshVertex
 10
190.8599999999998
 20
-1.640000000001244
 30
86.79999999999988
 70
   192
  0
VERTEX
  5
3A2
330
39E
100
AcDbEntity
  8
0
 62
     0
100
AcDbVertex
100
AcDbPolyFaceMeshVertex
 10
190.86
 20
-0.0000000000003421
 30
15.11052362656892
 70
   192
  0
VERTEX
  5
3A3
330
39E
100
AcDbEntity
  8
0
 62
     0
100
AcDbFaceRecord
 10
0.0
 20
0.0
 30
0.0
 70
   128
 71
    -1
 72
     2
 73
     3
  0
VERTEX
  5
3A4
330
39E
100
AcDbEntity
  8
0
 62
     0
100
AcDbFaceRecord
 10
0.0
 20
0.0
 30
0.0
 70
   128
 71
    -2
 72
     1
 73
     4
  0
SEQEND
  5
3A5
330
39E
100
AcDbEntity
  8
0
 62
     0
  0
LINE
  5
3A6
330
1F
100
AcDbEntity
  8
0
 62
   253
100
AcDbLine
 10
190.86
 20
-0.0000000000011776
 30
86.79999999999988
 11
190.86
 21
-0.0000000000003421
 31
15.11052362656892
  0
LINE
  5
3A7
330
1F
100
AcDbEntity
  8
0
 62
   253
100
AcDbLine
 10
190.86
 20
-0.0000000000003421
 30
15.11052362656892
 11
190.8599999999998
 21
-1.640000000000497
 31
15.1105236265689
  0
LINE
  5
3A8
330
1F
100
AcDbEntity
  8
0
 62
   253
100
AcDbLine
 10
190.8599999999998
 20
-1.640000000001244
 30
86.79999999999988
 11
190.8599999999998
 21
-1.640000000000497
 31
15.1105236265689
  0
LINE
  5
3A9
330
1F
100
AcDbEntity
  8
0
 62
   253
100
AcDbLine
 10
190.86
 20
-0.0000000000011776
 30
86.79999999999988
 11
190.8599999999998
 21
-1.640000000001244
 31
86.79999999999988
  0
POLYLINE
  5
3AA
330
1F
100
AcDbEntity
  8
0
 62
   253
100
AcDbPolyFaceMesh
 66
     1
 10
0.0
 20
0.0
 30
0.0
 70
    64
 71
     4
 72
     2
1001
ACAD_MATERIAL_MAPPER
1070
     1
1070
     1
1070
     1
1011
0.0
1021
0.0000000000000041
1031
-0.0000000000000374
1011
0.0
1021
-2.539999999999996
1031
-0.0000000000000374
1011
0.0
1021
0.0000000000000041
1031
2.539999999999964
1011
1.0
1021
0.0000000000000041
1031
-0.0000000000000374
  0
VERTEX
  5
3AB
330
3AA
100
AcDbEntity
  8
0
 62
   253
100
AcDbVertex
100
AcDbPolyFaceMeshVertex
 10
50.26000000000001
 20
-0.0000000000011172
 30
86.79999999999988
 70
   192
  0
VERTEX
  5
3AC
330
3AA
100
AcDbEntity
  8
0
 62
   253
100
AcDbVertex
100
AcDbPolyFaceMeshVertex
 10
50.26000000000004
 20
-0.8200000000003398
 30
15.11052362656891
 70
   192
  0
VERTEX
  5
3AD
330
3AA
100
AcDbEntity
  8
0
 62
   253
100
AcDbVertex
100
AcDbPolyFaceMeshVertex
 10
50.26000000000004
 20
-0.8200000000010471
 30
86.79999999999993
 70
   192
  0
VERTEX
  5
3AE
330
3AA
100
AcDbEntity
  8
0
 62
   253
100
AcDbVertex
100
AcDbPolyFaceMeshVertex
 10
50.26000000000003
 20
-0.0000000000002887
 30
15.11052362656892
 70
   192
  0
VERTEX
  5
3AF
330
3AA
100
AcDbEntity
  8
0
 62
   253
100
AcDbFaceRecord
 10
0.0
 20
0.0
 30
0.0
 70
   128
 71
    -1
 72
     2
 73
     3
  0
VERTEX
  5
3B0
330
3AA
100
AcDbEntity
  8
0
 62
   253
100
AcDbFaceRecord
 10
0.0
 20
0.0
 30
0.0
 70
   128
 71
    -2
 72
     1
 73
     4
  0
SEQEND
  5
3B1
330
3AA
100
AcDbEntity
  8
0
 62
   253
  0
LINE
  5
3B2
330
1F
100
AcDbEntity
  8
0
 62
   253
100
AcDbLine
 10
50.26000000000003
 20
-0.0000000000002887
 30
15.11052362656892
 11
50.26000000000001
 21
-0.0000000000011172
 31
86.79999999999988
  0
LINE
  5
3B3
330
1F
100
AcDbEntity
  8
0
 62
   253
100
AcDbLine
 10
50.26000000000003
 20
-0.0000000000002887
 30
15.11052362656892
 11
50.26000000000004
 21
-0.8200000000003398
 31
15.11052362656891
  0
LINE
  5
3B4
330
1F
100
AcDbEntity
  8
0
 62
   253
100
AcDbLine
 10
50.26000000000004
 20
-0.8200000000003398
 30
15.11052362656891
 11
50.26000000000004
 21
-0.8200000000010471
 31
86.79999999999993
  0
LINE
  5
3B5
330
1F
100
AcDbEntity
  8
0
 62
   253
100
AcDbLine
 10
50.26000000000001
 20
-0.0000000000011172
 30
86.79999999999988
 11
50.26000000000004
 21
-0.8200000000010471
 31
86.79999999999993
  0
POLYLINE
  5
3B6
330
1F
100
AcDbEntity
  8
0
 62
   253
100
AcDbPolyFaceMesh
 66
     1
 10
0.0
 20
0.0
 30
0.0
 70
    64
 71
     4
 72
     2
1001
ACAD_MATERIAL_MAPPER
1070
     1
1070
     1
1070
     1
1011
0.0
1021
-0.0000000000002494
1031
0.0
1011
-2.54
1021
-0.0000000000002494
1031
0.0
1011
0.0
1021
2.539999999999751
1031
0.0
1011
0.0
1021
-0.0000000000002494
1031
1.0
  0
VERTEX
  5
3B7
330
3B6
100
AcDbEntity
  8
0
 62
   253
100
AcDbVertex
100
AcDbPolyFaceMeshVertex
 10
0.2399999999999452
 20
-0.0000000000002527
 30
15.11052362656892
 70
   192
  0
VERTEX
  5
3B8
330
3B6
100
AcDbEntity
  8
0
 62
   253
100
AcDbVertex
100
AcDbPolyFaceMeshVertex
 10
49.7799999999999
 20
-1.640000000000425
 30
15.11052362656889
 70
   192
  0
VERTEX
  5
3B9
330
3B6
100
AcDbEntity
  8
0
 62
   253
100
AcDbVertex
100
AcDbPolyFaceMeshVertex
 10
0.2399999999999451
 20
-1.640000000000349
 30
15.11052362656889
 70
   192
  0
VERTEX
  5
3BA
330
3B6
100
AcDbEntity
  8
0
 62
   253
100
AcDbVertex
100
AcDbPolyFaceMeshVertex
 10
49.77999999999992
 20
-0.0000000000002773
 30
15.11052362656892
 70
   192
  0
VERTEX
  5
3BB
330
3B6
100
AcDbEntity
  8
0
 62
   253
100
AcDbFaceRecord
 10
0.0
 20
0.0
 30
0.0
 70
   128
 71
    -1
 72
     2
 73
     3
  0
VERTEX
  5
3BC
330
3B6
100
AcDbEntity
  8
0
 62
   253
100
AcDbFaceRecord
 10
0.0
 20
0.0
 30
0.0
 70
   128
 71
    -2
 72
     1
 73
     4
  0
SEQEND
  5
3BD
330
3B6
100
AcDbEntity
  8
0
 62
   253
  0
LINE
  5
3BE
330
1F
100
AcDbEntity
  8
0
 62
   253
100
AcDbLine
 10
49.77999999999992
 20
-0.0000000000002773
 30
15.11052362656892
 11
0.2399999999999452
 21
-0.0000000000002527
 31
15.11052362656892
  0
LINE
  5
3BF
330
1F
100
AcDbEntity
  8
0
 62
   253
100
AcDbLine
 10
49.77999999999992
 20
-0.0000000000002773
 30
15.11052362656892
 11
49.7799999999999
 21
-1.640000000000425
 31
15.11052362656889
  0
LINE
  5
3C0
330
1F
100
AcDbEntity
  8
0
 62
   253
100
AcDbLine
 10
49.7799999999999
 20
-1.640000000000425
 30
15.11052362656889
 11
0.2399999999999451
 21
-1.640000000000349
 31
15.11052362656889
  0
LINE
  5
3C1
330
1F
100
AcDbEntity
  8
0
 62
   253
100
AcDbLine
 10
0.2399999999999452
 20
-0.0000000000002527
 30
15.11052362656892
 11
0.2399999999999451
 21
-1.640000000000349
 31
15.11052362656889
  0
POLYLINE
  5
3C2
330
1F
100
AcDbEntity
  8
0
 62
   253
100
AcDbPolyFaceMesh
 66
     1
 10
0.0
 20
0.0
 30
0.0
 70
    64
 71
     4
 72
     2
1001
ACAD_MATERIAL_MAPPER
1070
     1
1070
     1
1070
     1
1011
0.0
1021
-0.0000000000019104
1031
0.0
1011
2.54
1021
-0.0000000000019104
1031
0.0
1011
-0.0000000000000001
1021
2.539999999998089
1031
0.0
1011
0.0
1021
-0.0000000000019104
1031
1.0
  0
VERTEX
  5
3C3
330
3C2
100
AcDbEntity
  8
0
 62
   253
100
AcDbVertex
100
AcDbPolyFaceMeshVertex
 10
49.77999999999987
 20
-1.64000000000118
 30
86.79999999999984
 70
   192
  0
VERTEX
  5
3C4
330
3C2
100
AcDbEntity
  8
0
 62
   253
100
AcDbVertex
100
AcDbPolyFaceMeshVertex
 10
0.2399999999999453
 20
-0.0000000000010107
 30
86.79999999999988
 70
   192
  0
VERTEX
  5
3C5
330
3C2
100
AcDbEntity
  8
0
 62
   253
100
AcDbVertex
100
AcDbPolyFaceMeshVertex
 10
0.239999999999945
 20
-1.640000000001178
 30
86.79999999999984
 70
   192
  0
VERTEX
  5
3C6
330
3C2
100
AcDbEntity
  8
0
 62
   253
100
AcDbVertex
100
AcDbPolyFaceMeshVertex
 10
49.77999999999994
 20
-0.0000000000010251
 30
86.79999999999988
 70
   192
  0
VERTEX
  5
3C7
330
3C2
100
AcDbEntity
  8
0
 62
   253
100
AcDbFaceRecord
 10
0.0
 20
0.0
 30
0.0
 70
   128
 71
    -1
 72
     2
 73
     3
  0
VERTEX
  5
3C8
330
3C2
100
AcDbEntity
  8
0
 62
   253
100
AcDbFaceRecord
 10
0.0
 20
0.0
 30
0.0
 70
   128
 71
    -2
 72
     1
 73
     4
  0
SEQEND
  5
3C9
330
3C2
100
AcDbEntity
  8
0
 62
   253
  0
LINE
  5
3CA
330
1F
100
AcDbEntity
  8
0
 62
   253
100
AcDbLine
 10
0.2399999999999453
 20
-0.0000000000010107
 30
86.79999999999988
 11
49.77999999999994
 21
-0.0000000000010251
 31
86.79999999999988
  0
LINE
  5
3CB
330
1F
100
AcDbEntity
  8
0
 62
   253
100
AcDbLine
 10
0.2399999999999453
 20
-0.0000000000010107
 30
86.79999999999988
 11
0.239999999999945
 21
-1.640000000001178
 31
86.79999999999984
  0
LINE
  5
3CC
330
1F
100
AcDbEntity
  8
0
 62
   253
100
AcDbLine
 10
0.239999999999945
 20
-1.640000000001178
 30
86.79999999999984
 11
49.77999999999987
 21
-1.64000000000118
 31
86.79999999999984
  0
LINE
  5
3CD
330
1F
100
AcDbEntity
  8
0
 62
   253
100
AcDbLine
 10
49.77999999999994
 20
-0.0000000000010251
 30
86.79999999999988
 11
49.77999999999987
 21
-1.64000000000118
 31
86.79999999999984
  0
POLYLINE
  5
3CE
330
1F
100
AcDbEntity
  8
0
 62
     0
100
AcDbPolyFaceMesh
 66
     1
 10
0.0
 20
0.0
 30
0.0
 70
    64
 71
     4
 72
     2
1001
ACAD_MATERIAL_MAPPER
1070
     1
1070
     1
1070
     1
1011
0.0
1021
0.0000000000000039
1031
0.0000000000000125
1011
0.0
1021
2.540000000000004
1031
0.0000000000000125
1011
0.0
1021
0.0000000000000039
1031
2.540000000000012
1011
1.0
1021
0.0000000000000039
1031
0.0000000000000125
  0
VERTEX
  5
3CF
330
3CE
100
AcDbEntity
  8
0
 62
     0
100
AcDbVertex
100
AcDbPolyFaceMeshVertex
 10
49.7799999999999
 20
-1.640000000000425
 30
15.11052362656889
 70
   192
  0
VERTEX
  5
3D0
330
3CE
100
AcDbEntity
  8
0
 62
     0
100
AcDbVertex
100
AcDbPolyFaceMeshVertex
 10
49.77999999999994
 20
-0.0000000000010251
 30
86.79999999999988
 70
   192
  0
VERTEX
  5
3D1
330
3CE
100
AcDbEntity
  8
0
 62
     0
100
AcDbVertex
100
AcDbPolyFaceMeshVertex
 10
49.77999999999987
 20
-1.64000000000118
 30
86.79999999999984
 70
   192
  0
VERTEX
  5
3D2
330
3CE
100
AcDbEntity
  8
0
 62
     0
100
AcDbVertex
100
AcDbPolyFaceMeshVertex
 10
49.77999999999992
 20
-0.0000000000002773
 30
15.11052362656892
 70
   192
  0
VERTEX
  5
3D3
330
3CE
100
AcDbEntity
  8
0
 62
     0
100
AcDbFaceRecord
 10
0.0
 20
0.0
 30
0.0
 70
   128
 71
    -1
 72
     2
 73
     3
  0
VERTEX
  5
3D4
330
3CE
100
AcDbEntity
  8
0
 62
     0
100
AcDbFaceRecord
 10
0.0
 20
0.0
 30
0.0
 70
   128
 71
    -2
 72
     1
 73
     4
  0
SEQEND
  5
3D5
330
3CE
100
AcDbEntity
  8
0
 62
     0
  0
LINE
  5
3D6
330
1F
100
AcDbEntity
  8
0
 62
   253
100
AcDbLine
 10
49.77999999999994
 20
-0.0000000000010251
 30
86.79999999999988
 11
49.77999999999992
 21
-0.0000000000002773
 31
15.11052362656892
  0
LINE
  5
3D7
330
1F
100
AcDbEntity
  8
0
 62
   253
100
AcDbLine
 10
49.77999999999994
 20
-0.0000000000010251
 30
86.79999999999988
 11
49.77999999999987
 21
-1.64000000000118
 31
86.79999999999984
  0
LINE
  5
3D8
330
1F
100
AcDbEntity
  8
0
 62
     0
100
AcDbLine
 10
49.77999999999987
 20
-1.64000000000118
 30
86.79999999999984
 11
49.7799999999999
 21
-1.640000000000425
 31
15.11052362656889
  0
LINE
  5
3D9
330
1F
100
AcDbEntity
  8
0
 62
   253
100
AcDbLine
 10
49.77999999999992
 20
-0.0000000000002773
 30
15.11052362656892
 11
49.7799999999999
 21
-1.640000000000425
 31
15.11052362656889
  0
POLYLINE
  5
3DA
330
1F
100
AcDbEntity
  8
0
 62
     0
100
AcDbPolyFaceMesh
 66
     1
 10
0.0
 20
0.0
 30
0.0
 70
    64
 71
     4
 72
     2
1001
ACAD_MATERIAL_MAPPER
1070
     1
1070
     1
1070
     1
1011
-0.0000000000004926
1021
0.0
1031
-0.0000000000000308
1011
2.539999999999508
1021
0.0
1031
-0.0000000000000308
1011
-0.0000000000004926
1021
0.0
1031
2.53999999999997
1011
-0.0000000000004926
1021
1.0
1031
-0.0000000000000308
  0
VERTEX
  5
3DB
330
3DA
100
AcDbEntity
  8
0
 62
     0
100
AcDbVertex
100
AcDbPolyFaceMeshVertex
 10
299.7599999999998
 20
-0.8200000000010809
 30
76.7999999999999
 70
   192
  0
VERTEX
  5
3DC
330
3DA
100
AcDbEntity
  8
0
 62
     0
100
AcDbVertex
100
AcDbPolyFaceMeshVertex
 10
270.2599999999998
 20
-0.8200000000006478
 30
25.1105236265689
 70
   192
  0
VERTEX
  5
3DD
330
3DA
100
AcDbEntity
  8
0
 62
     0
100
AcDbVertex
100
AcDbPolyFaceMeshVertex
 10
299.7599999999998
 20
-0.820000000000557
 30
25.1105236265689
 70
   192
  0
VERTEX
  5
3DE
330
3DA
100
AcDbEntity
  8
0
 62
     0
100
AcDbVertex
100
AcDbPolyFaceMeshVertex
 10
270.2599999999999
 20
-0.8200000000011756
 30
76.7999999999999
 70
   192
  0
VERTEX
  5
3DF
330
3DA
100
AcDbEntity
  8
0
 62
     0
100
AcDbFaceRecord
 10
0.0
 20
0.0
 30
0.0
 70
   128
 71
    -1
 72
     2
 73
     3
  0
VERTEX
  5
3E0
330
3DA
100
AcDbEntity
  8
0
 62
     0
100
AcDbFaceRecord
 10
0.0
 20
0.0
 30
0.0
 70
   128
 71
    -2
 72
     1
 73
     4
  0
SEQEND
  5
3E1
330
3DA
100
AcDbEntity
  8
0
 62
     0
  0
LINE
  5
3E2
330
1F
100
AcDbEntity
  8
0
 62
   253
100
AcDbLine
 10
299.7599999999998
 20
-0.820000000000557
 30
25.1105236265689
 11
270.2599999999998
 21
-0.8200000000006478
 31
25.1105236265689
  0
LINE
  5
3E3
330
1F
100
AcDbEntity
  8
0
 62
   253
100
AcDbLine
 10
299.7599999999998
 20
-0.8200000000010809
 30
76.7999999999999
 11
299.7599999999998
 21
-0.820000000000557
 31
25.1105236265689
  0
LINE
  5
3E4
330
1F
100
AcDbEntity
  8
0
 62
     0
100
AcDbLine
 10
270.2599999999999
 20
-0.8200000000011756
 30
76.7999999999999
 11
299.7599999999998
 21
-0.8200000000010809
 31
76.7999999999999
  0
LINE
  5
3E5
330
1F
100
AcDbEntity
  8
0
 62
   253
100
AcDbLine
 10
270.2599999999998
 20
-0.8200000000006478
 30
25.1105236265689
 11
270.2599999999999
 21
-0.8200000000011756
 31
76.7999999999999
  0
POLYLINE
  5
3E6
330
1F
100
AcDbEntity
  8
0
 62
     0
100
AcDbPolyFaceMesh
 66
     1
 10
0.0
 20
0.0
 30
0.0
 70
    64
 71
     4
 72
     2
1001
ACAD_MATERIAL_MAPPER
1070
     1
1070
     1
1070
     1
1011
0.0
1021
0.0
1031
-0.0000000000000186
1011
2.539999999999999
1021
0.0
1031
-0.0000000000000186
1011
0.0
1021
0.0
1031
2.539999999999982
1011
0.0
1021
1.0
1031
-0.0000000000000186
  0
VERTEX
  5
3E7
330
3E6
100
AcDbEntity
  8
0
 62
     0
100
AcDbVertex
100
AcDbPolyFaceMeshVertex
 10
249.78
 20
-0.820000000001056
 30
76.79999999999987
 70
   192
  0
VERTEX
  5
3E8
330
3E6
100
AcDbEntity
  8
0
 62
     0
100
AcDbVertex
100
AcDbPolyFaceMeshVertex
 10
200.86
 20
-0.8200000000004193
 30
25.11052362656891
 70
   192
  0
VERTEX
  5
3E9
330
3E6
100
AcDbEntity
  8
0
 62
     0
100
AcDbVertex
100
AcDbPolyFaceMeshVertex
 10
249.7799999999998
 20
-0.8200000000005006
 30
25.11052362656891
 70
   192
  0
VERTEX
  5
3EA
330
3E6
100
AcDbEntity
  8
0
 62
     0
100
AcDbVertex
100
AcDbPolyFaceMeshVertex
 10
200.8600000000002
 20
-0.8200000000010397
 30
76.79999999999987
 70
   192
  0
VERTEX
  5
3EB
330
3E6
100
AcDbEntity
  8
0
 62
     0
100
AcDbFaceRecord
 10
0.0
 20
0.0
 30
0.0
 70
   128
 71
    -1
 72
     2
 73
     3
  0
VERTEX
  5
3EC
330
3E6
100
AcDbEntity
  8
0
 62
     0
100
AcDbFaceRecord
 10
0.0
 20
0.0
 30
0.0
 70
   128
 71
    -2
 72
     1
 73
     4
  0
SEQEND
  5
3ED
330
3E6
100
AcDbEntity
  8
0
 62
     0
  0
LINE
  5
3EE
330
1F
100
AcDbEntity
  8
0
 62
     0
100
AcDbLine
 10
200.8600000000002
 20
-0.8200000000010397
 30
76.79999999999987
 11
249.78
 21
-0.820000000001056
 31
76.79999999999987
  0
LINE
  5
3EF
330
1F
100
AcDbEntity
  8
0
 62
   253
100
AcDbLine
 10
200.86
 20
-0.8200000000004193
 30
25.11052362656891
 11
200.8600000000002
 21
-0.8200000000010397
 31
76.79999999999987
  0
LINE
  5
3F0
330
1F
100
AcDbEntity
  8
0
 62
   253
100
AcDbLine
 10
249.7799999999998
 20
-0.8200000000005006
 30
25.11052362656891
 11
200.86
 21
-0.8200000000004193
 31
25.11052362656891
  0
LINE
  5
3F1
330
1F
100
AcDbEntity
  8
0
 62
   253
100
AcDbLine
 10
249.78
 20
-0.820000000001056
 30
76.79999999999987
 11
249.7799999999998
 21
-0.8200000000005006
 31
25.11052362656891
  0
POLYLINE
  5
3F2
330
1F
100
AcDbEntity
  8
0
 62
     0
100
AcDbPolyFaceMesh
 66
     1
 10
0.0
 20
0.0
 30
0.0
 70
    64
 71
     4
 72
     2
1001
ACAD_MATERIAL_MAPPER
1070
     1
1070
     1
1070
     1
1011
-0.000000000000001
1021
0.0
1031
-0.0000000000000101
1011
2.54
1021
0.0
1031
-0.0000000000000101
1011
-0.000000000000001
1021
0.0
1031
2.53999999999999
1011
-0.000000000000001
1021
1.0
1031
-0.0000000000000101
  0
VERTEX
  5
3F3
330
3F2
100
AcDbEntity
  8
0
 62
     0
100
AcDbVertex
100
AcDbPolyFaceMeshVertex
 10
39.78000000000007
 20
-0.8200000000009315
 30
76.79999999999987
 70
   192
  0
VERTEX
  5
3F4
330
3F2
100
AcDbEntity
  8
0
 62
     0
100
AcDbVertex
100
AcDbPolyFaceMeshVertex
 10
10.23999999999991
 20
-0.8200000000003895
 30
25.11052362656891
 70
   192
  0
VERTEX
  5
3F5
330
3F2
100
AcDbEntity
  8
0
 62
     0
100
AcDbVertex
100
AcDbPolyFaceMeshVertex
 10
39.78000000000009
 20
-0.820000000000388
 30
25.11052362656891
 70
   192
  0
VERTEX
  5
3F6
330
3F2
100
AcDbEntity
  8
0
 62
     0
100
AcDbVertex
100
AcDbPolyFaceMeshVertex
 10
10.23999999999991
 20
-0.8200000000008941
 30
76.79999999999987
 70
   192
  0
VERTEX
  5
3F7
330
3F2
100
AcDbEntity
  8
0
 62
     0
100
AcDbFaceRecord
 10
0.0
 20
0.0
 30
0.0
 70
   128
 71
    -1
 72
     2
 73
     3
  0
VERTEX
  5
3F8
330
3F2
100
AcDbEntity
  8
0
 62
     0
100
AcDbFaceRecord
 10
0.0
 20
0.0
 30
0.0
 70
   128
 71
    -2
 72
     1
 73
     4
  0
SEQEND
  5
3F9
330
3F2
100
AcDbEntity
  8
0
 62
     0
  0
LINE
  5
3FA
330
1F
100
AcDbEntity
  8
0
 62
   253
100
AcDbLine
 10
39.78000000000007
 20
-0.8200000000009315
 30
76.79999999999987
 11
39.78000000000009
 21
-0.820000000000388
 31
25.11052362656891
  0
LINE
  5
3FB
330
1F
100
AcDbEntity
  8
0
 62
   253
100
AcDbLine
 10
10.23999999999991
 20
-0.8200000000008941
 30
76.79999999999987
 11
39.78000000000007
 21
-0.8200000000009315
 31
76.79999999999987
  0
LINE
  5
3FC
330
1F
100
AcDbEntity
  8
0
 62
   253
100
AcDbLine
 10
10.23999999999991
 20
-0.8200000000003895
 30
25.11052362656891
 11
10.23999999999991
 21
-0.8200000000008941
 31
76.79999999999987
  0
LINE
  5
3FD
330
1F
100
AcDbEntity
  8
0
 62
   253
100
AcDbLine
 10
39.78000000000009
 20
-0.820000000000388
 30
25.11052362656891
 11
10.23999999999991
 21
-0.8200000000003895
 31
25.11052362656891
  0
POLYLINE
  5
3FE
330
1F
100
AcDbEntity
  8
0
 62
     0
100
AcDbPolyFaceMesh
 66
     1
 10
0.0
 20
0.0
 30
0.0
 70
    64
 71
     5
 72
     3
1001
ACAD_MATERIAL_MAPPER
1070
     1
1070
     1
1070
     1
1011
0.0
1021
0.0000000000000199
1031
-0.0000000000006382
1011
0.0
1021
-2.53999999999998
1031
-0.0000000000006369
1011
0.0
1021
0.0000000000000196
1031
2.53999999999936
1011
1.0
1021
0.0000000000000199
1031
-0.0000000000006382
  0
VERTEX
  5
3FF
330
3FE
100
AcDbEntity
  8
0
 62
     0
100
AcDbVertex
100
AcDbPolyFaceMeshVertex
 10
-0.000000000000002
 20
46.57599999999917
 30
90.00000000000041
 70
   192
  0
VERTEX
  5
400
330
3FE
100
AcDbEntity
  8
0
 62
     0
100
AcDbVertex
100
AcDbPolyFaceMeshVertex
 10
-0.0000000000000002
 20
-2.460000000001029
 30
86.99999999999986
 70
   192
  0
VERTEX
  5
401
330
3FE
100
AcDbEntity
  8
0
 62
     0
100
AcDbVertex
100
AcDbPolyFaceMeshVertex
 10
-0.0000000000000006
 20
-2.460000000001101
 30
89.99999999999983
 70
   192
  0
VERTEX
  5
402
330
3FE
100
AcDbEntity
  8
0
 62
     0
100
AcDbVertex
100
AcDbPolyFaceMeshVertex
 10
0.0
 20
-0.0000000000010107
 30
86.99999999999989
 70
   192
  0
VERTEX
  5
403
330
3FE
100
AcDbEntity
  8
0
 62
     0
100
AcDbVertex
100
AcDbPolyFaceMeshVertex
 10
-0.0000000000000142
 20
46.57599999999931
 30
87.00000000000045
 70
   192
  0
VERTEX
  5
404
330
3FE
100
AcDbEntity
  8
0
 62
     0
100
AcDbFaceRecord
 10
0.0
 20
0.0
 30
0.0
 70
   128
 71
    -1
 72
     2
 73
     3
  0
VERTEX
  5
405
330
3FE
100
AcDbEntity
  8
0
 62
     0
100
AcDbFaceRecord
 10
0.0
 20
0.0
 30
0.0
 70
   128
 71
    -2
 72
    -1
 73
     4
  0
VERTEX
  5
406
330
3FE
100
AcDbEntity
  8
0
 62
     0
100
AcDbFaceRecord
 10
0.0
 20
0.0
 30
0.0
 70
   128
 71
    -4
 72
     1
 73
     5
  0
SEQEND
  5
407
330
3FE
100
AcDbEntity
  8
0
 62
     0
  0
LINE
  5
408
330
1F
100
AcDbEntity
  8
0
 62
   178
100
AcDbLine
 10
-0.0000000000000006
 20
-2.460000000001101
 30
89.99999999999983
 11
-0.000000000000002
 21
46.57599999999917
 31
90.00000000000041
  0
LINE
  5
409
330
1F
100
AcDbEntity
  8
0
 62
   253
100
AcDbLine
 10
-0.0000000000000142
 20
46.57599999999931
 30
87.00000000000045
 11
-0.000000000000002
 21
46.57599999999917
 31
90.00000000000041
  0
LINE
  5
40A
330
1F
100
AcDbEntity
  8
0
 62
   253
100
AcDbLine
 10
0.0
 20
-0.0000000000010107
 30
86.99999999999989
 11
-0.0000000000000142
 21
46.57599999999931
 31
87.00000000000045
  0
LINE
  5
40B
330
1F
100
AcDbEntity
  8
0
 62
   253
100
AcDbLine
 10
0.0
 20
-0.0000000000010107
 30
86.99999999999989
 11
-0.0000000000000002
 21
-2.460000000001029
 31
86.99999999999986
  0
LINE
  5
40C
330
1F
100
AcDbEntity
  8
0
 62
   253
100
AcDbLine
 10
-0.0000000000000002
 20
-2.460000000001029
 30
86.99999999999986
 11
-0.0000000000000006
 21
-2.460000000001101
 31
89.99999999999983
  0
POLYLINE
  5
40D
330
1F
100
AcDbEntity
  8
0
 62
     0
100
AcDbPolyFaceMesh
 66
     1
 10
0.0
 20
0.0
 30
0.0
 70
    64
 71
     5
 72
     3
1001
ACAD_MATERIAL_MAPPER
1070
     1
1070
     1
1070
     1
1011
0.0
1021
-0.0000000000022237
1031
0.000000000009541
1011
0.0
1021
2.539999999997777
1031
0.000000000009541
1011
0.0
1021
-0.0000000000022237
1031
2.540000000009539
1011
1.0
1021
-0.0000000000022237
1031
0.000000000009541
  0
VERTEX
  5
40E
330
40D
100
AcDbEntity
  8
0
 62
     0
100
AcDbVertex
100
AcDbPolyFaceMeshVertex
 10
309.9999999999999
 20
-0.0000000000012588
 30
86.99999999999989
 70
   192
  0
VERTEX
  5
40F
330
40D
100
AcDbEntity
  8
0
 62
     0
100
AcDbVertex
100
AcDbPolyFaceMeshVertex
 10
309.9999999999996
 20
-2.460000000001306
 30
89.99999999999983
 70
   192
  0
VERTEX
  5
410
330
40D
100
AcDbEntity
  8
0
 62
     0
100
AcDbVertex
100
AcDbPolyFaceMeshVertex
 10
309.9999999999996
 20
-2.460000000001306
 30
86.99999999999986
 70
   192
  0
VERTEX
  5
411
330
40D
100
AcDbEntity
  8
0
 62
     0
100
AcDbVertex
100
AcDbPolyFaceMeshVertex
 10
310.0
 20
46.57599999999896
 30
90.00000000000041
 70
   192
  0
VERTEX
  5
412
330
40D
100
AcDbEntity
  8
0
 62
     0
100
AcDbVertex
100
AcDbPolyFaceMeshVertex
 10
310.0
 20
46.57599999999896
 30
87.00000000000045
 70
   192
  0
VERTEX
  5
413
330
40D
100
AcDbEntity
  8
0
 62
     0
100
AcDbFaceRecord
 10
0.0
 20
0.0
 30
0.0
 70
   128
 71
    -1
 72
     2
 73
     3
  0
VERTEX
  5
414
330
40D
100
AcDbEntity
  8
0
 62
     0
100
AcDbFaceRecord
 10
0.0
 20
0.0
 30
0.0
 70
   128
 71
    -2
 72
    -1
 73
     4
  0
VERTEX
  5
415
330
40D
100
AcDbEntity
  8
0
 62
     0
100
AcDbFaceRecord
 10
0.0
 20
0.0
 30
0.0
 70
   128
 71
    -4
 72
     1
 73
     5
  0
SEQEND
  5
416
330
40D
100
AcDbEntity
  8
0
 62
     0
  0
LINE
  5
417
330
1F
100
AcDbEntity
  8
0
 62
   253
100
AcDbLine
 10
309.9999999999999
 20
-0.0000000000012588
 30
86.99999999999989
 11
310.0
 21
46.57599999999896
 31
87.00000000000045
  0
LINE
  5
418
330
1F
100
AcDbEntity
  8
0
 62
   253
100
AcDbLine
 10
310.0
 20
46.57599999999896
 30
90.00000000000041
 11
310.0
 21
46.57599999999896
 31
87.00000000000045
  0
LINE
  5
419
330
1F
100
AcDbEntity
  8
0
 62
   178
100
AcDbLine
 10
309.9999999999996
 20
-2.460000000001306
 30
89.99999999999983
 11
310.0
 21
46.57599999999896
 31
90.00000000000041
  0
LINE
  5
41A
330
1F
100
AcDbEntity
  8
0
 62
     0
100
AcDbLine
 10
309.9999999999996
 20
-2.460000000001306
 30
89.99999999999983
 11
309.9999999999996
 21
-2.460000000001306
 31
86.99999999999986
  0
LINE
  5
41B
330
1F
100
AcDbEntity
  8
0
 62
   253
100
AcDbLine
 10
309.9999999999999
 20
-0.0000000000012588
 30
86.99999999999989
 11
309.9999999999996
 21
-2.460000000001306
 31
86.99999999999986
  0
POLYLINE
  5
41C
330
1F
100
AcDbEntity
  8
0
 62
     0
100
AcDbPolyFaceMesh
 66
     1
 10
0.0
 20
0.0
 30
0.0
 70
    64
 71
     4
 72
     2
1001
ACAD_MATERIAL_MAPPER
1070
     1
1070
     1
1070
     1
1011
0.0
1021
0.0
1031
-0.0000000000004038
1011
2.54
1021
0.0
1031
-0.0000000000004038
1011
0.0
1021
0.0
1031
2.539999999999599
1011
0.0
1021
1.0
1031
-0.0000000000004038
  0
VERTEX
  5
41D
330
41C
100
AcDbEntity
  8
0
 62
     0
100
AcDbVertex
100
AcDbPolyFaceMeshVertex
 10
309.9999999999996
 20
-2.460000000001306
 30
89.99999999999983
 70
   192
  0
VERTEX
  5
41E
330
41C
100
AcDbEntity
  8
0
 62
     0
100
AcDbVertex
100
AcDbPolyFaceMeshVertex
 10
-0.0000000000000002
 20
-2.460000000001029
 30
86.99999999999986
 70
   192
  0
VERTEX
  5
41F
330
41C
100
AcDbEntity
  8
0
 62
     0
100
AcDbVertex
100
AcDbPolyFaceMeshVertex
 10
309.9999999999996
 20
-2.460000000001306
 30
86.99999999999986
 70
   192
  0
VERTEX
  5
420
330
41C
100
AcDbEntity
  8
0
 62
     0
100
AcDbVertex
100
AcDbPolyFaceMeshVertex
 10
-0.0000000000000006
 20
-2.460000000001101
 30
89.99999999999983
 70
   192
  0
VERTEX
  5
421
330
41C
100
AcDbEntity
  8
0
 62
     0
100
AcDbFaceRecord
 10
0.0
 20
0.0
 30
0.0
 70
   128
 71
    -1
 72
     2
 73
     3
  0
VERTEX
  5
422
330
41C
100
AcDbEntity
  8
0
 62
     0
100
AcDbFaceRecord
 10
0.0
 20
0.0
 30
0.0
 70
   128
 71
    -2
 72
     1
 73
     4
  0
SEQEND
  5
423
330
41C
100
AcDbEntity
  8
0
 62
     0
  0
LINE
  5
424
330
1F
100
AcDbEntity
  8
0
 62
     0
100
AcDbLine
 10
309.9999999999996
 20
-2.460000000001306
 30
89.99999999999983
 11
309.9999999999996
 21
-2.460000000001306
 31
86.99999999999986
  0
LINE
  5
425
330
1F
100
AcDbEntity
  8
0
 62
   178
100
AcDbLine
 10
309.9999999999996
 20
-2.460000000001306
 30
89.99999999999983
 11
-0.0000000000000006
 21
-2.460000000001101
 31
89.99999999999983
  0
LINE
  5
426
330
1F
100
AcDbEntity
  8
0
 62
   253
100
AcDbLine
 10
-0.0000000000000002
 20
-2.460000000001029
 30
86.99999999999986
 11
-0.0000000000000006
 21
-2.460000000001101
 31
89.99999999999983
  0
LINE
  5
427
330
1F
100
AcDbEntity
  8
0
 62
   253
100
AcDbLine
 10
309.9999999999996
 20
-2.460000000001306
 30
86.99999999999986
 11
-0.0000000000000002
 21
-2.460000000001029
 31
86.99999999999986
  0
POLYLINE
  5
428
330
1F
100
AcDbEntity
  8
0
 62
     0
100
AcDbPolyFaceMesh
 66
     1
 10
0.0
 20
0.0
 30
0.0
 70
    64
 71
     4
 72
     2
1001
ACAD_MATERIAL_MAPPER
1070
     1
1070
     1
1070
     1
1011
0.0000000000000168
1021
0.0
1031
-5.066673219450675
1011
-2.539999999999984
1021
0.0
1031
-5.066673219450675
1011
0.000000000000017
1021
0.0
1031
-2.557929481434435
1011
0.0000000000000168
1021
1.0
1031
-5.066673219450675
  0
VERTEX
  5
429
330
428
100
AcDbEntity
  8
0
 62
     0
100
AcDbVertex
100
AcDbPolyFaceMeshVertex
 10
-0.0000000000000142
 20
46.57599999999931
 30
87.00000000000045
 70
   192
  0
VERTEX
  5
42A
330
428
100
AcDbEntity
  8
0
 62
     0
100
AcDbVertex
100
AcDbPolyFaceMeshVertex
 10
310.0
 20
32.8000000000002
 30
0.0000000000005595
 70
   192
  0
VERTEX
  5
42B
330
428
100
AcDbEntity
  8
0
 62
     0
100
AcDbVertex
100
AcDbPolyFaceMeshVertex
 10
-0.0000000000000125
 20
32.80000000000037
 30
0.0000000000005595
 70
   192
  0
VERTEX
  5
42C
330
428
100
AcDbEntity
  8
0
 62
     0
100
AcDbVertex
100
AcDbPolyFaceMeshVertex
 10
310.0
 20
46.57599999999896
 30
87.00000000000045
 70
   192
  0
VERTEX
  5
42D
330
428
100
AcDbEntity
  8
0
 62
     0
100
AcDbFaceRecord
 10
0.0
 20
0.0
 30
0.0
 70
   128
 71
    -1
 72
     2
 73
     3
  0
VERTEX
  5
42E
330
428
100
AcDbEntity
  8
0
 62
     0
100
AcDbFaceRecord
 10
0.0
 20
0.0
 30
0.0
 70
   128
 71
    -2
 72
     1
 73
     4
  0
SEQEND
  5
42F
330
428
100
AcDbEntity
  8
0
 62
     0
  0
LINE
  5
430
330
1F
100
AcDbEntity
  8
0
 62
   253
100
AcDbLine
 10
310.0
 20
46.57599999999896
 30
87.00000000000045
 11
-0.0000000000000142
 21
46.57599999999931
 31
87.00000000000045
  0
LINE
  5
431
330
1F
100
AcDbEntity
  8
0
 62
   253
100
AcDbLine
 10
310.0
 20
46.57599999999896
 30
87.00000000000045
 11
310.0
 21
32.8000000000002
 31
0.0000000000005595
  0
LINE
  5
432
330
1F
100
AcDbEntity
  8
0
 62
   253
100
AcDbLine
 10
310.0
 20
32.8000000000002
 30
0.0000000000005595
 11
-0.0000000000000125
 21
32.80000000000037
 31
0.0000000000005595
  0
LINE
  5
433
330
1F
100
AcDbEntity
  8
0
 62
   253
100
AcDbLine
 10
-0.0000000000000142
 20
46.57599999999931
 30
87.00000000000045
 11
-0.0000000000000125
 21
32.80000000000037
 31
0.0000000000005595
  0
POLYLINE
  5
434
330
1F
100
AcDbEntity
  8
0
 62
   253
100
AcDbPolyFaceMesh
 66
     1
 10
0.0
 20
0.0
 30
0.0
 70
    64
 71
     4
 72
     2
1001
ACAD_MATERIAL_MAPPER
1070
     1
1070
     1
1070
     1
1011
0.0000000000002077
1021
-0.0000000000000008
1031
0.0
1011
2.540000000000207
1021
-0.0000000000000008
1031
0.0
1011
0.0000000000002077
1021
2.539999999999998
1031
0.0
1011
0.0000000000002077
1021
-0.0000000000000008
1031
1.0
  0
VERTEX
  5
435
330
434
100
AcDbEntity
  8
0
 62
   253
100
AcDbVertex
100
AcDbPolyFaceMeshVertex
 10
259.7799999999998
 20
-1.640000000001416
 30
86.79999999999988
 70
   192
  0
VERTEX
  5
436
330
434
100
AcDbEntity
  8
0
 62
   253
100
AcDbVertex
100
AcDbPolyFaceMeshVertex
 10
190.86
 20
-0.0000000000011776
 30
86.79999999999988
 70
   192
  0
VERTEX
  5
437
330
434
100
AcDbEntity
  8
0
 62
   253
100
AcDbVertex
100
AcDbPolyFaceMeshVertex
 10
190.8599999999998
 20
-1.640000000001244
 30
86.79999999999988
 70
   192
  0
VERTEX
  5
438
330
434
100
AcDbEntity
  8
0
 62
   253
100
AcDbVertex
100
AcDbPolyFaceMeshVertex
 10
259.7799999999999
 20
-0.000000000001278
 30
86.79999999999988
 70
   192
  0
VERTEX
  5
439
330
434
100
AcDbEntity
  8
0
 62
   253
100
AcDbFaceRecord
 10
0.0
 20
0.0
 30
0.0
 70
   128
 71
    -1
 72
     2
 73
     3
  0
VERTEX
  5
43A
330
434
100
AcDbEntity
  8
0
 62
   253
100
AcDbFaceRecord
 10
0.0
 20
0.0
 30
0.0
 70
   128
 71
    -2
 72
     1
 73
     4
  0
SEQEND
  5
43B
330
434
100
AcDbEntity
  8
0
 62
   253
  0
LINE
  5
43C
330
1F
100
AcDbEntity
  8
0
 62
   253
100
AcDbLine
 10
259.7799999999999
 20
-0.000000000001278
 30
86.79999999999988
 11
190.86
 21
-0.0000000000011776
 31
86.79999999999988
  0
LINE
  5
43D
330
1F
100
AcDbEntity
  8
0
 62
   253
100
AcDbLine
 10
190.86
 20
-0.0000000000011776
 30
86.79999999999988
 11
190.8599999999998
 21
-1.640000000001244
 31
86.79999999999988
  0
LINE
  5
43E
330
1F
100
AcDbEntity
  8
0
 62
   253
100
AcDbLine
 10
259.7799999999998
 20
-1.640000000001416
 30
86.79999999999988
 11
190.8599999999998
 21
-1.640000000001244
 31
86.79999999999988
  0
LINE
  5
43F
330
1F
100
AcDbEntity
  8
0
 62
   253
100
AcDbLine
 10
259.7799999999999
 20
-0.000000000001278
 30
86.79999999999988
 11
259.7799999999998
 21
-1.640000000001416
 31
86.79999999999988
  0
POLYLINE
  5
440
330
1F
100
AcDbEntity
  8
0
 62
   253
100
AcDbPolyFaceMesh
 66
     1
 10
0.0
 20
0.0
 30
0.0
 70
    64
 71
     4
 72
     2
1001
ACAD_MATERIAL_MAPPER
1070
     1
1070
     1
1070
     1
1011
0.0
1021
-0.0000000000010451
1031
0.0
1011
-2.54
1021
-0.0000000000010451
1031
0.0
1011
0.0
1021
2.539999999998955
1031
0.0
1011
0.0
1021
-0.0000000000010451
1031
1.0
  0
VERTEX
  5
441
330
440
100
AcDbEntity
  8
0
 62
   253
100
AcDbVertex
100
AcDbPolyFaceMeshVertex
 10
310.0
 20
46.57599999999896
 30
87.00000000000045
 70
   192
  0
VERTEX
  5
442
330
440
100
AcDbEntity
  8
0
 62
   253
100
AcDbVertex
100
AcDbPolyFaceMeshVertex
 10
0.0
 20
-0.0000000000010107
 30
86.99999999999989
 70
   192
  0
VERTEX
  5
443
330
440
100
AcDbEntity
  8
0
 62
   253
100
AcDbVertex
100
AcDbPolyFaceMeshVertex
 10
-0.0000000000000142
 20
46.57599999999931
 30
87.00000000000045
 70
   192
  0
VERTEX
  5
444
330
440
100
AcDbEntity
  8
0
 62
   253
100
AcDbVertex
100
AcDbPolyFaceMeshVertex
 10
309.9999999999999
 20
-0.0000000000012588
 30
86.99999999999989
 70
   192
  0
VERTEX
  5
445
330
440
100
AcDbEntity
  8
0
 62
   253
100
AcDbFaceRecord
 10
0.0
 20
0.0
 30
0.0
 70
   128
 71
    -1
 72
     2
 73
     3
  0
VERTEX
  5
446
330
440
100
AcDbEntity
  8
0
 62
   253
100
AcDbFaceRecord
 10
0.0
 20
0.0
 30
0.0
 70
   128
 71
    -2
 72
     1
 73
     4
  0
SEQEND
  5
447
330
440
100
AcDbEntity
  8
0
 62
   253
  0
LINE
  5
448
330
1F
100
AcDbEntity
  8
0
 62
   253
100
AcDbLine
 10
309.9999999999999
 20
-0.0000000000012588
 30
86.99999999999989
 11
0.0
 21
-0.0000000000010107
 31
86.99999999999989
  0
LINE
  5
449
330
1F
100
AcDbEntity
  8
0
 62
   253
100
AcDbLine
 10
0.0
 20
-0.0000000000010107
 30
86.99999999999989
 11
-0.0000000000000142
 21
46.57599999999931
 31
87.00000000000045
  0
LINE
  5
44A
330
1F
100
AcDbEntity
  8
0
 62
   253
100
AcDbLine
 10
310.0
 20
46.57599999999896
 30
87.00000000000045
 11
-0.0000000000000142
 21
46.57599999999931
 31
87.00000000000045
  0
LINE
  5
44B
330
1F
100
AcDbEntity
  8
0
 62
   253
100
AcDbLine
 10
309.9999999999999
 20
-0.0000000000012588
 30
86.99999999999989
 11
310.0
 21
46.57599999999896
 31
87.00000000000045
  0
POLYLINE
  5
44C
330
1F
100
AcDbEntity
  8
0
 62
   253
100
AcDbPolyFaceMesh
 66
     1
 10
0.0
 20
0.0
 30
0.0
 70
    64
 71
     4
 72
     2
1001
ACAD_MATERIAL_MAPPER
1070
     1
1070
     1
1070
     1
1011
0.0000000000002077
1021
-0.0000000000001874
1031
0.0
1011
-2.539999999999792
1021
-0.0000000000001874
1031
0.0
1011
0.0000000000002596
1021
2.539999999999813
1031
0.0
1011
0.0000000000002077
1021
-0.0000000000001874
1031
1.0
  0
VERTEX
  5
44D
330
44C
100
AcDbEntity
  8
0
 62
   253
100
AcDbVertex
100
AcDbPolyFaceMeshVertex
 10
190.86
 20
-0.0000000000003421
 30
15.11052362656892
 70
   192
  0
VERTEX
  5
44E
330
44C
100
AcDbEntity
  8
0
 62
   253
100
AcDbVertex
100
AcDbPolyFaceMeshVertex
 10
259.78
 20
-1.640000000000525
 30
15.1105236265689
 70
   192
  0
VERTEX
  5
44F
330
44C
100
AcDbEntity
  8
0
 62
   253
100
AcDbVertex
100
AcDbPolyFaceMeshVertex
 10
190.8599999999998
 20
-1.640000000000497
 30
15.1105236265689
 70
   192
  0
VERTEX
  5
450
330
44C
100
AcDbEntity
  8
0
 62
   253
100
AcDbVertex
100
AcDbPolyFaceMeshVertex
 10
259.7799999999999
 20
-0.0000000000003367
 30
15.11052362656892
 70
   192
  0
VERTEX
  5
451
330
44C
100
AcDbEntity
  8
0
 62
   253
100
AcDbFaceRecord
 10
0.0
 20
0.0
 30
0.0
 70
   128
 71
    -1
 72
     2
 73
     3
  0
VERTEX
  5
452
330
44C
100
AcDbEntity
  8
0
 62
   253
100
AcDbFaceRecord
 10
0.0
 20
0.0
 30
0.0
 70
   128
 71
    -2
 72
     1
 73
     4
  0
SEQEND
  5
453
330
44C
100
AcDbEntity
  8
0
 62
   253
  0
LINE
  5
454
330
1F
100
AcDbEntity
  8
0
 62
   253
100
AcDbLine
 10
259.7799999999999
 20
-0.0000000000003367
 30
15.11052362656892
 11
190.86
 21
-0.0000000000003421
 31
15.11052362656892
  0
LINE
  5
455
330
1F
100
AcDbEntity
  8
0
 62
   253
100
AcDbLine
 10
259.7799999999999
 20
-0.0000000000003367
 30
15.11052362656892
 11
259.78
 21
-1.640000000000525
 31
15.1105236265689
  0
LINE
  5
456
330
1F
100
AcDbEntity
  8
0
 62
   253
100
AcDbLine
 10
259.78
 20
-1.640000000000525
 30
15.1105236265689
 11
190.8599999999998
 21
-1.640000000000497
 31
15.1105236265689
  0
LINE
  5
457
330
1F
100
AcDbEntity
  8
0
 62
   253
100
AcDbLine
 10
190.86
 20
-0.0000000000003421
 30
15.11052362656892
 11
190.8599999999998
 21
-1.640000000000497
 31
15.1105236265689
  0
POLYLINE
  5
458
330
1F
100
AcDbEntity
  8
0
 62
   253
100
AcDbPolyFaceMesh
 66
     1
 10
0.0
 20
0.0
 30
0.0
 70
    64
 71
     4
 72
     2
1001
ACAD_MATERIAL_MAPPER
1070
     1
1070
     1
1070
     1
1011
0.0
1021
0.0000000000000211
1031
-0.000000000000025
1011
0.0
1021
2.54000000000002
1031
-0.000000000000025
1011
0.0
1021
0.0000000000000211
1031
2.539999999999975
1011
1.0
1021
0.0000000000000211
1031
-0.000000000000025
  0
VERTEX
  5
459
330
458
100
AcDbEntity
  8
0
 62
   253
100
AcDbVertex
100
AcDbPolyFaceMeshVertex
 10
259.78
 20
-1.640000000000525
 30
15.1105236265689
 70
   192
  0
VERTEX
  5
45A
330
458
100
AcDbEntity
  8
0
 62
   253
100
AcDbVertex
100
AcDbPolyFaceMeshVertex
 10
259.7799999999999
 20
-0.000000000001278
 30
86.79999999999988
 70
   192
  0
VERTEX
  5
45B
330
458
100
AcDbEntity
  8
0
 62
   253
100
AcDbVertex
100
AcDbPolyFaceMeshVertex
 10
259.7799999999998
 20
-1.640000000001416
 30
86.79999999999988
 70
   192
  0
VERTEX
  5
45C
330
458
100
AcDbEntity
  8
0
 62
   253
100
AcDbVertex
100
AcDbPolyFaceMeshVertex
 10
259.7799999999999
 20
-0.0000000000003367
 30
15.11052362656892
 70
   192
  0
VERTEX
  5
45D
330
458
100
AcDbEntity
  8
0
 62
   253
100
AcDbFaceRecord
 10
0.0
 20
0.0
 30
0.0
 70
   128
 71
    -1
 72
     2
 73
     3
  0
VERTEX
  5
45E
330
458
100
AcDbEntity
  8
0
 62
   253
100
AcDbFaceRecord
 10
0.0
 20
0.0
 30
0.0
 70
   128
 71
    -2
 72
     1
 73
     4
  0
SEQEND
  5
45F
330
458
100
AcDbEntity
  8
0
 62
   253
  0
LINE
  5
460
330
1F
100
AcDbEntity
  8
0
 62
   253
100
AcDbLine
 10
259.7799999999999
 20
-0.0000000000003367
 30
15.11052362656892
 11
259.7799999999999
 21
-0.000000000001278
 31
86.79999999999988
  0
LINE
  5
461
330
1F
100
AcDbEntity
  8
0
 62
   253
100
AcDbLine
 10
259.7799999999999
 20
-0.000000000001278
 30
86.79999999999988
 11
259.7799999999998
 21
-1.640000000001416
 31
86.79999999999988
  0
LINE
  5
462
330
1F
100
AcDbEntity
  8
0
 62
   253
100
AcDbLine
 10
259.78
 20
-1.640000000000525
 30
15.1105236265689
 11
259.7799999999998
 21
-1.640000000001416
 31
86.79999999999988
  0
LINE
  5
463
330
1F
100
AcDbEntity
  8
0
 62
   253
100
AcDbLine
 10
259.7799999999999
 20
-0.0000000000003367
 30
15.11052362656892
 11
259.78
 21
-1.640000000000525
 31
15.1105236265689
  0
POLYLINE
  5
464
330
1F
100
AcDbEntity
  8
0
 62
   253
100
AcDbPolyFaceMesh
 66
     1
 10
0.0
 20
0.0
 30
0.0
 70
    64
 71
     4
 72
     2
1001
ACAD_MATERIAL_MAPPER
1070
     1
1070
     1
1070
     1
1011
0.0
1021
-0.0000000000012766
1031
0.0
1011
2.54
1021
-0.0000000000012766
1031
0.0
1011
0.0
1021
2.539999999998723
1031
0.0
1011
0.0
1021
-0.0000000000012766
1031
1.0
  0
VERTEX
  5
465
330
464
100
AcDbEntity
  8
0
 62
   253
100
AcDbVertex
100
AcDbPolyFaceMeshVertex
 10
309.9999999999996
 20
-2.460000000001306
 30
86.99999999999986
 70
   192
  0
VERTEX
  5
466
330
464
100
AcDbEntity
  8
0
 62
   253
100
AcDbVertex
100
AcDbPolyFaceMeshVertex
 10
0.0
 20
-0.0000000000010107
 30
86.99999999999989
 70
   192
  0
VERTEX
  5
467
330
464
100
AcDbEntity
  8
0
 62
   253
100
AcDbVertex
100
AcDbPolyFaceMeshVertex
 10
-0.0000000000000002
 20
-2.460000000001029
 30
86.99999999999986
 70
   192
  0
VERTEX
  5
468
330
464
100
AcDbEntity
  8
0
 62
   253
100
AcDbVertex
100
AcDbPolyFaceMeshVertex
 10
309.9999999999999
 20
-0.0000000000012588
 30
86.99999999999989
 70
   192
  0
VERTEX
  5
469
330
464
100
AcDbEntity
  8
0
 62
   253
100
AcDbFaceRecord
 10
0.0
 20
0.0
 30
0.0
 70
   128
 71
    -1
 72
     2
 73
     3
  0
VERTEX
  5
46A
330
464
100
AcDbEntity
  8
0
 62
   253
100
AcDbFaceRecord
 10
0.0
 20
0.0
 30
0.0
 70
   128
 71
    -2
 72
     1
 73
     4
  0
SEQEND
  5
46B
330
464
100
AcDbEntity
  8
0
 62
   253
  0
LINE
  5
46C
330
1F
100
AcDbEntity
  8
0
 62
   253
100
AcDbLine
 10
309.9999999999999
 20
-0.0000000000012588
 30
86.99999999999989
 11
0.0
 21
-0.0000000000010107
 31
86.99999999999989
  0
LINE
  5
46D
330
1F
100
AcDbEntity
  8
0
 62
   253
100
AcDbLine
 10
0.0
 20
-0.0000000000010107
 30
86.99999999999989
 11
-0.0000000000000002
 21
-2.460000000001029
 31
86.99999999999986
  0
LINE
  5
46E
330
1F
100
AcDbEntity
  8
0
 62
   253
100
AcDbLine
 10
309.9999999999996
 20
-2.460000000001306
 30
86.99999999999986
 11
-0.0000000000000002
 21
-2.460000000001029
 31
86.99999999999986
  0
LINE
  5
46F
330
1F
100
AcDbEntity
  8
0
 62
   253
100
AcDbLine
 10
309.9999999999999
 20
-0.0000000000012588
 30
86.99999999999989
 11
309.9999999999996
 21
-2.460000000001306
 31
86.99999999999986
  0
POLYLINE
  5
470
330
1F
100
AcDbEntity
  8
0
 62
   253
100
AcDbPolyFaceMesh
 66
     1
 10
0.0
 20
0.0
 30
0.0
 70
    64
 71
     4
 72
     2
1001
ACAD_MATERIAL_MAPPER
1070
     1
1070
     1
1070
     1
1011
0.0
1021
0.000000000000015
1031
0.0
1011
0.0
1021
2.540000000000015
1031
0.0
1011
0.0
1021
0.000000000000015
1031
2.54
1011
1.0
1021
0.000000000000015
1031
0.0
  0
VERTEX
  5
471
330
470
100
AcDbEntity
  8
0
 62
   253
100
AcDbVertex
100
AcDbPolyFaceMeshVertex
 10
190.38
 20
-0.8200000000003539
 30
15.11052362656891
 70
   192
  0
VERTEX
  5
472
330
470
100
AcDbEntity
  8
0
 62
   253
100
AcDbVertex
100
AcDbPolyFaceMeshVertex
 10
190.3799999999999
 20
-0.000000000001126
 30
86.79999999999988
 70
   192
  0
VERTEX
  5
473
330
470
100
AcDbEntity
  8
0
 62
   253
100
AcDbVertex
100
AcDbPolyFaceMeshVertex
 10
190.3800000000001
 20
-0.8200000000010016
 30
86.7999999999999
 70
   192
  0
VERTEX
  5
474
330
470
100
AcDbEntity
  8
0
 62
   253
100
AcDbVertex
100
AcDbPolyFaceMeshVertex
 10
190.3799999999999
 20
-0.0000000000003285
 30
15.11052362656892
 70
   192
  0
VERTEX
  5
475
330
470
100
AcDbEntity
  8
0
 62
   253
100
AcDbFaceRecord
 10
0.0
 20
0.0
 30
0.0
 70
   128
 71
    -1
 72
     2
 73
     3
  0
VERTEX
  5
476
330
470
100
AcDbEntity
  8
0
 62
   253
100
AcDbFaceRecord
 10
0.0
 20
0.0
 30
0.0
 70
   128
 71
    -2
 72
     1
 73
     4
  0
SEQEND
  5
477
330
470
100
AcDbEntity
  8
0
 62
   253
  0
LINE
  5
478
330
1F
100
AcDbEntity
  8
0
 62
   253
100
AcDbLine
 10
190.3799999999999
 20
-0.000000000001126
 30
86.79999999999988
 11
190.3799999999999
 21
-0.0000000000003285
 31
15.11052362656892
  0
LINE
  5
479
330
1F
100
AcDbEntity
  8
0
 62
   253
100
AcDbLine
 10
190.3799999999999
 20
-0.000000000001126
 30
86.79999999999988
 11
190.3800000000001
 21
-0.8200000000010016
 31
86.7999999999999
  0
LINE
  5
47A
330
1F
100
AcDbEntity
  8
0
 62
   253
100
AcDbLine
 10
190.3800000000001
 20
-0.8200000000010016
 30
86.7999999999999
 11
190.38
 21
-0.8200000000003539
 31
15.11052362656891
  0
LINE
  5
47B
330
1F
100
AcDbEntity
  8
0
 62
   253
100
AcDbLine
 10
190.3799999999999
 20
-0.0000000000003285
 30
15.11052362656892
 11
190.38
 21
-0.8200000000003539
 31
15.11052362656891
  0
POLYLINE
  5
47C
330
1F
100
AcDbEntity
  8
0
 62
     0
100
AcDbPolyFaceMesh
 66
     1
 10
0.0
 20
0.0
 30
0.0
 70
    64
 71
     4
 72
     2
1001
ACAD_MATERIAL_MAPPER
1070
     1
1070
     1
1070
     1
1011
0.0
1021
0.0
1031
0.0
1011
-2.54
1021
0.0
1031
0.0
1011
0.0
1021
2.54
1031
0.0
1011
0.0
1021
0.0
1031
1.0
  0
VERTEX
  5
47D
330
47C
100
AcDbEntity
  8
0
 62
     0
100
AcDbVertex
100
AcDbPolyFaceMeshVertex
 10
310.0
 20
32.8000000000002
 30
0.0000000000005595
 70
   192
  0
VERTEX
  5
47E
330
47C
100
AcDbEntity
  8
0
 62
     0
100
AcDbVertex
100
AcDbPolyFaceMeshVertex
 10
0.0
 20
0.0
 30
0.0
 70
   192
  0
VERTEX
  5
47F
330
47C
100
AcDbEntity
  8
0
 62
     0
100
AcDbVertex
100
AcDbPolyFaceMeshVertex
 10
-0.0000000000000125
 20
32.80000000000037
 30
0.0000000000005595
 70
   192
  0
VERTEX
  5
480
330
47C
100
AcDbEntity
  8
0
 62
     0
100
AcDbVertex
100
AcDbPolyFaceMeshVertex
 10
309.9999999999999
 20
-0.0000000000003266
 30
0.0
 70
   192
  0
VERTEX
  5
481
330
47C
100
AcDbEntity
  8
0
 62
     0
100
AcDbFaceRecord
 10
0.0
 20
0.0
 30
0.0
 70
   128
 71
    -1
 72
     2
 73
     3
  0
VERTEX
  5
482
330
47C
100
AcDbEntity
  8
0
 62
     0
100
AcDbFaceRecord
 10
0.0
 20
0.0
 30
0.0
 70
   128
 71
    -2
 72
     1
 73
     4
  0
SEQEND
  5
483
330
47C
100
AcDbEntity
  8
0
 62
     0
  0
LINE
  5
484
330
1F
100
AcDbEntity
  8
0
 62
   253
100
AcDbLine
 10
309.9999999999999
 20
-0.0000000000003266
 30
0.0
 11
0.0
 21
0.0
 31
0.0
  0
LINE
  5
485
330
1F
100
AcDbEntity
  8
0
 62
   253
100
AcDbLine
 10
0.0
 20
0.0
 30
0.0
 11
-0.0000000000000125
 21
32.80000000000037
 31
0.0000000000005595
  0
LINE
  5
486
330
1F
100
AcDbEntity
  8
0
 62
   253
100
AcDbLine
 10
310.0
 20
32.8000000000002
 30
0.0000000000005595
 11
-0.0000000000000125
 21
32.80000000000037
 31
0.0000000000005595
  0
LINE
  5
487
330
1F
100
AcDbEntity
  8
0
 62
   253
100
AcDbLine
 10
309.9999999999999
 20
-0.0000000000003266
 30
0.0
 11
310.0
 21
32.8000000000002
 31
0.0000000000005595
  0
POLYLINE
  5
488
330
1F
100
AcDbEntity
  8
0
 62
     0
100
AcDbPolyFaceMesh
 66
     1
 10
0.0
 20
0.0
 30
0.0
 70
    64
 71
     4
 72
     2
1001
ACAD_MATERIAL_MAPPER
1070
     1
1070
     1
1070
     1
1011
0.0
1021
0.0000000000000207
1031
0.0000000000000125
1011
0.0
1021
-2.539999999999979
1031
0.0000000000000125
1011
0.0
1021
0.0000000000000207
1031
2.540000000000012
1011
1.0
1021
0.0000000000000207
1031
0.0000000000000125
  0
VERTEX
  5
489
330
488
100
AcDbEntity
  8
0
 62
     0
100
AcDbVertex
100
AcDbPolyFaceMeshVertex
 10
260.2599999999999
 20
-0.000000000001115
 30
86.79999999999988
 70
   192
  0
VERTEX
  5
48A
330
488
100
AcDbEntity
  8
0
 62
     0
100
AcDbVertex
100
AcDbPolyFaceMeshVertex
 10
260.26
 20
-1.6400000000004
 30
15.11052362656889
 70
   192
  0
VERTEX
  5
48B
330
488
100
AcDbEntity
  8
0
 62
     0
100
AcDbVertex
100
AcDbPolyFaceMeshVertex
 10
260.26
 20
-1.64000000000122
 30
86.79999999999988
 70
   192
  0
VERTEX
  5
48C
330
488
100
AcDbEntity
  8
0
 62
     0
100
AcDbVertex
100
AcDbPolyFaceMeshVertex
 10
260.2599999999998
 20
-0.0000000000002955
 30
15.11052362656892
 70
   192
  0
VERTEX
  5
48D
330
488
100
AcDbEntity
  8
0
 62
     0
100
AcDbFaceRecord
 10
0.0
 20
0.0
 30
0.0
 70
   128
 71
    -1
 72
     2
 73
     3
  0
VERTEX
  5
48E
330
488
100
AcDbEntity
  8
0
 62
     0
100
AcDbFaceRecord
 10
0.0
 20
0.0
 30
0.0
 70
   128
 71
    -2
 72
     1
 73
     4
  0
SEQEND
  5
48F
330
488
100
AcDbEntity
  8
0
 62
     0
  0
LINE
  5
490
330
1F
100
AcDbEntity
  8
0
 62
   253
100
AcDbLine
 10
260.2599999999998
 20
-0.0000000000002955
 30
15.11052362656892
 11
260.2599999999999
 21
-0.000000000001115
 31
86.79999999999988
  0
LINE
  5
491
330
1F
100
AcDbEntity
  8
0
 62
   253
100
AcDbLine
 10
260.2599999999998
 20
-0.0000000000002955
 30
15.11052362656892
 11
260.26
 21
-1.6400000000004
 31
15.11052362656889
  0
LINE
  5
492
330
1F
100
AcDbEntity
  8
0
 62
   253
100
AcDbLine
 10
260.26
 20
-1.6400000000004
 30
15.11052362656889
 11
260.26
 21
-1.64000000000122
 31
86.79999999999988
  0
LINE
  5
493
330
1F
100
AcDbEntity
  8
0
 62
   253
100
AcDbLine
 10
260.2599999999999
 20
-0.000000000001115
 30
86.79999999999988
 11
260.26
 21
-1.64000000000122
 31
86.79999999999988
  0
POLYLINE
  5
494
330
1F
100
AcDbEntity
  8
0
 62
   253
100
AcDbPolyFaceMesh
 66
     1
 10
0.0
 20
0.0
 30
0.0
 70
    64
 71
     4
 72
     2
1001
ACAD_MATERIAL_MAPPER
1070
     1
1070
     1
1070
     1
1011
0.0
1021
0.0
1031
0.0
1011
2.54
1021
0.0
1031
0.0
1011
-0.0000000000000723
1021
2.540000000000001
1031
0.0
1011
0.0
1021
0.0
1031
1.0
  0
VERTEX
  5
495
330
494
100
AcDbEntity
  8
0
 62
   253
100
AcDbVertex
100
AcDbPolyFaceMeshVertex
 10
260.26
 20
-1.64000000000122
 30
86.79999999999988
 70
   192
  0
VERTEX
  5
496
330
494
100
AcDbEntity
  8
0
 62
   253
100
AcDbVertex
100
AcDbPolyFaceMeshVertex
 10
309.7599999999999
 20
-0.0000000000012695
 30
86.79999999999988
 70
   192
  0
VERTEX
  5
497
330
494
100
AcDbEntity
  8
0
 62
   253
100
AcDbVertex
100
AcDbPolyFaceMeshVertex
 10
260.2599999999999
 20
-0.000000000001115
 30
86.79999999999988
 70
   192
  0
VERTEX
  5
498
330
494
100
AcDbEntity
  8
0
 62
   253
100
AcDbVertex
100
AcDbPolyFaceMeshVertex
 10
309.7599999999999
 20
-1.6400000000012
 30
86.79999999999988
 70
   192
  0
VERTEX
  5
499
330
494
100
AcDbEntity
  8
0
 62
   253
100
AcDbFaceRecord
 10
0.0
 20
0.0
 30
0.0
 70
   128
 71
    -1
 72
     2
 73
     3
  0
VERTEX
  5
49A
330
494
100
AcDbEntity
  8
0
 62
   253
100
AcDbFaceRecord
 10
0.0
 20
0.0
 30
0.0
 70
   128
 71
    -2
 72
     1
 73
     4
  0
SEQEND
  5
49B
330
494
100
AcDbEntity
  8
0
 62
   253
  0
LINE
  5
49C
330
1F
100
AcDbEntity
  8
0
 62
   253
100
AcDbLine
 10
260.2599999999999
 20
-0.000000000001115
 30
86.79999999999988
 11
309.7599999999999
 21
-0.0000000000012695
 31
86.79999999999988
  0
LINE
  5
49D
330
1F
100
AcDbEntity
  8
0
 62
   253
100
AcDbLine
 10
260.2599999999999
 20
-0.000000000001115
 30
86.79999999999988
 11
260.26
 21
-1.64000000000122
 31
86.79999999999988
  0
LINE
  5
49E
330
1F
100
AcDbEntity
  8
0
 62
   253
100
AcDbLine
 10
260.26
 20
-1.64000000000122
 30
86.79999999999988
 11
309.7599999999999
 21
-1.6400000000012
 31
86.79999999999988
  0
LINE
  5
49F
330
1F
100
AcDbEntity
  8
0
 62
   253
100
AcDbLine
 10
309.7599999999999
 20
-0.0000000000012695
 30
86.79999999999988
 11
309.7599999999999
 21
-1.6400000000012
 31
86.79999999999988
  0
POLYLINE
  5
4A0
330
1F
100
AcDbEntity
  8
0
 62
     0
100
AcDbPolyFaceMesh
 66
     1
 10
0.0
 20
0.0
 30
0.0
 70
    64
 71
     4
 72
     2
1001
ACAD_MATERIAL_MAPPER
1070
     1
1070
     1
1070
     1
1011
0.0
1021
0.0
1031
0.0
1011
0.0
1021
-2.54
1031
0.0
1011
0.0
1021
0.0
1031
2.54
1011
1.0
1021
0.0
1031
0.0
  0
VERTEX
  5
4A1
330
4A0
100
AcDbEntity
  8
0
 62
     0
100
AcDbVertex
100
AcDbPolyFaceMeshVertex
 10
0.2399999999999453
 20
-0.0000000000010107
 30
86.79999999999988
 70
   192
  0
VERTEX
  5
4A2
330
4A0
100
AcDbEntity
  8
0
 62
     0
100
AcDbVertex
100
AcDbPolyFaceMeshVertex
 10
0.2399999999999451
 20
-1.640000000000349
 30
15.11052362656889
 70
   192
  0
VERTEX
  5
4A3
330
4A0
100
AcDbEntity
  8
0
 62
     0
100
AcDbVertex
100
AcDbPolyFaceMeshVertex
 10
0.239999999999945
 20
-1.640000000001178
 30
86.79999999999984
 70
   192
  0
VERTEX
  5
4A4
330
4A0
100
AcDbEntity
  8
0
 62
     0
100
AcDbVertex
100
AcDbPolyFaceMeshVertex
 10
0.2399999999999452
 20
-0.0000000000002527
 30
15.11052362656892
 70
   192
  0
VERTEX
  5
4A5
330
4A0
100
AcDbEntity
  8
0
 62
     0
100
AcDbFaceRecord
 10
0.0
 20
0.0
 30
0.0
 70
   128
 71
    -1
 72
     2
 73
     3
  0
VERTEX
  5
4A6
330
4A0
100
AcDbEntity
  8
0
 62
     0
100
AcDbFaceRecord
 10
0.0
 20
0.0
 30
0.0
 70
   128
 71
    -2
 72
     1
 73
     4
  0
SEQEND
  5
4A7
330
4A0
100
AcDbEntity
  8
0
 62
     0
  0
LINE
  5
4A8
330
1F
100
AcDbEntity
  8
0
 62
   253
100
AcDbLine
 10
0.2399999999999452
 20
-0.0000000000002527
 30
15.11052362656892
 11
0.2399999999999453
 21
-0.0000000000010107
 31
86.79999999999988
  0
LINE
  5
4A9
330
1F
100
AcDbEntity
  8
0
 62
   253
100
AcDbLine
 10
0.2399999999999452
 20
-0.0000000000002527
 30
15.11052362656892
 11
0.2399999999999451
 21
-1.640000000000349
 31
15.11052362656889
  0
LINE
  5
4AA
330
1F
100
AcDbEntity
  8
0
 62
   253
100
AcDbLine
 10
0.2399999999999451
 20
-1.640000000000349
 30
15.11052362656889
 11
0.239999999999945
 21
-1.640000000001178
 31
86.79999999999984
  0
LINE
  5
4AB
330
1F
100
AcDbEntity
  8
0
 62
   253
100
AcDbLine
 10
0.2399999999999453
 20
-0.0000000000010107
 30
86.79999999999988
 11
0.239999999999945
 21
-1.640000000001178
 31
86.79999999999984
  0
POLYLINE
  5
4AC
330
1F
100
AcDbEntity
  8
0
 62
     0
100
AcDbPolyFaceMesh
 66
     1
 10
0.0
 20
0.0
 30
0.0
 70
    64
 71
     4
 72
     2
1001
ACAD_MATERIAL_MAPPER
1070
     1
1070
     1
1070
     1
1011
0.0000000000001494
1021
0.0
1031
-0.0000000000000187
1011
2.540000000000151
1021
0.0
1031
-0.0000000000000187
1011
0.0000000000001494
1021
0.0
1031
2.539999999999982
1011
0.0000000000001494
1021
1.0
1031
-0.0000000000000187
  0
VERTEX
  5
4AD
330
4AC
100
AcDbEntity
  8
0
 62
     0
100
AcDbVertex
100
AcDbPolyFaceMeshVertex
 10
180.3800000000002
 20
-0.8200000000009199
 30
76.79999999999991
 70
   192
  0
VERTEX
  5
4AE
330
4AC
100
AcDbEntity
  8
0
 62
     0
100
AcDbVertex
100
AcDbPolyFaceMeshVertex
 10
131.7599999999999
 20
-0.8200000000004475
 30
25.11052362656891
 70
   192
  0
VERTEX
  5
4AF
330
4AC
100
AcDbEntity
  8
0
 62
     0
100
AcDbVertex
100
AcDbPolyFaceMeshVertex
 10
180.3800000000004
 20
-0.8200000000004528
 30
25.11052362656891
 70
   192
  0
VERTEX
  5
4B0
330
4AC
100
AcDbEntity
  8
0
 62
     0
100
AcDbVertex
100
AcDbPolyFaceMeshVertex
 10
131.7599999999999
 20
-0.8200000000009824
 30
76.79999999999987
 70
   192
  0
VERTEX
  5
4B1
330
4AC
100
AcDbEntity
  8
0
 62
     0
100
AcDbFaceRecord
 10
0.0
 20
0.0
 30
0.0
 70
   128
 71
    -1
 72
     2
 73
     3
  0
VERTEX
  5
4B2
330
4AC
100
AcDbEntity
  8
0
 62
     0
100
AcDbFaceRecord
 10
0.0
 20
0.0
 30
0.0
 70
   128
 71
    -2
 72
     1
 73
     4
  0
SEQEND
  5
4B3
330
4AC
100
AcDbEntity
  8
0
 62
     0
  0
LINE
  5
4B4
330
1F
100
AcDbEntity
  8
0
 62
   253
100
AcDbLine
 10
180.3800000000004
 20
-0.8200000000004528
 30
25.11052362656891
 11
131.7599999999999
 21
-0.8200000000004475
 31
25.11052362656891
  0
LINE
  5
4B5
330
1F
100
AcDbEntity
  8
0
 62
   253
100
AcDbLine
 10
180.3800000000002
 20
-0.8200000000009199
 30
76.79999999999991
 11
180.3800000000004
 21
-0.8200000000004528
 31
25.11052362656891
  0
LINE
  5
4B6
330
1F
100
AcDbEntity
  8
0
 62
   253
100
AcDbLine
 10
131.7599999999999
 20
-0.8200000000009824
 30
76.79999999999987
 11
180.3800000000002
 21
-0.8200000000009199
 31
76.79999999999991
  0
LINE
  5
4B7
330
1F
100
AcDbEntity
  8
0
 62
   253
100
AcDbLine
 10
131.7599999999999
 20
-0.8200000000004475
 30
25.11052362656891
 11
131.7599999999999
 21
-0.8200000000009824
 31
76.79999999999987
  0
POLYLINE
  5
4B8
330
1F
100
AcDbEntity
  8
0
 62
     0
100
AcDbPolyFaceMesh
 66
     1
 10
0.0
 20
0.0
 30
0.0
 70
    64
 71
     8
 72
     8
1001
ACAD_MATERIAL_MAPPER
1070
     1
1070
     1
1070
     1
1011
-0.0000000000001897
1021
0.0
1031
-0.0000000000000356
1011
2.539999999999809
1021
0.0
1031
-0.0000000000000356
1011
-0.0000000000001897
1021
0.0
1031
2.539999999999965
1011
-0.0000000000001897
1021
1.0
1031
-0.0000000000000356
  0
VERTEX
  5
4B9
330
4B8
100
AcDbEntity
  8
0
 62
     0
100
AcDbVertex
100
AcDbPolyFaceMeshVertex
 10
309.7599999999999
 20
-1.640000000000373
 30
15.11052362656889
 70
   192
  0
VERTEX
  5
4BA
330
4B8
100
AcDbEntity
  8
0
 62
     0
100
AcDbVertex
100
AcDbPolyFaceMeshVertex
 10
299.7599999999997
 20
-1.640000000000596
 30
25.11052362656889
 70
   192
  0
VERTEX
  5
4BB
330
4B8
100
AcDbEntity
  8
0
 62
     0
100
AcDbVertex
100
AcDbPolyFaceMeshVertex
 10
260.26
 20
-1.6400000000004
 30
15.11052362656889
 70
   192
  0
VERTEX
  5
4BC
330
4B8
100
AcDbEntity
  8
0
 62
     0
100
AcDbVertex
100
AcDbPolyFaceMeshVertex
 10
309.7599999999999
 20
-1.6400000000012
 30
86.79999999999988
 70
   192
  0
VERTEX
  5
4BD
330
4B8
100
AcDbEntity
  8
0
 62
     0
100
AcDbVertex
100
AcDbPolyFaceMeshVertex
 10
299.7599999999996
 20
-1.640000000001283
 30
76.79999999999988
 70
   192
  0
VERTEX
  5
4BE
330
4B8
100
AcDbEntity
  8
0
 62
     0
100
AcDbVertex
100
AcDbPolyFaceMeshVertex
 10
270.26
 20
-1.64000000000126
 30
76.79999999999988
 70
   192
  0
VERTEX
  5
4BF
330
4B8
100
AcDbEntity
  8
0
 62
     0
100
AcDbVertex
100
AcDbPolyFaceMeshVertex
 10
270.2599999999998
 20
-1.640000000000758
 30
25.11052362656889
 70
   192
  0
VERTEX
  5
4C0
330
4B8
100
AcDbEntity
  8
0
 62
     0
100
AcDbVertex
100
AcDbPolyFaceMeshVertex
 10
260.26
 20
-1.64000000000122
 30
86.79999999999988
 70
   192
  0
VERTEX
  5
4C1
330
4B8
100
AcDbEntity
  8
0
 62
     0
100
AcDbFaceRecord
 10
0.0
 20
0.0
 30
0.0
 70
   128
 71
    -1
 72
    -2
 73
     3
  0
VERTEX
  5
4C2
330
4B8
100
AcDbEntity
  8
0
 62
     0
100
AcDbFaceRecord
 10
0.0
 20
0.0
 30
0.0
 70
   128
 71
    -2
 72
     1
 73
    -4
  0
VERTEX
  5
4C3
330
4B8
100
AcDbEntity
  8
0
 62
     0
100
AcDbFaceRecord
 10
0.0
 20
0.0
 30
0.0
 70
   128
 71
    -2
 72
    -4
 73
     5
  0
VERTEX
  5
4C4
330
4B8
100
AcDbEntity
  8
0
 62
     0
100
AcDbFaceRecord
 10
0.0
 20
0.0
 30
0.0
 70
   128
 71
    -5
 72
    -4
 73
     6
  0
VERTEX
  5
4C5
330
4B8
100
AcDbEntity
  8
0
 62
     0
100
AcDbFaceRecord
 10
0.0
 20
0.0
 30
0.0
 70
   128
 71
    -3
 72
    -7
 73
     8
  0
VERTEX
  5
4C6
330
4B8
100
AcDbEntity
  8
0
 62
     0
100
AcDbFaceRecord
 10
0.0
 20
0.0
 30
0.0
 70
   128
 71
    -7
 72
    -3
 73
     2
  0
VERTEX
  5
4C7
330
4B8
100
AcDbEntity
  8
0
 62
     0
100
AcDbFaceRecord
 10
0.0
 20
0.0
 30
0.0
 70
   128
 71
    -8
 72
     7
 73
    -6
  0
VERTEX
  5
4C8
330
4B8
100
AcDbEntity
  8
0
 62
     0
100
AcDbFaceRecord
 10
0.0
 20
0.0
 30
0.0
 70
   128
 71
    -8
 72
    -6
 73
     4
  0
SEQEND
  5
4C9
330
4B8
100
AcDbEntity
  8
0
 62
     0
  0
LINE
  5
4CA
330
1F
100
AcDbEntity
  8
0
 62
   253
100
AcDbLine
 10
309.7599999999999
 20
-1.640000000000373
 30
15.11052362656889
 11
260.26
 21
-1.6400000000004
 31
15.11052362656889
  0
LINE
  5
4CB
330
1F
100
AcDbEntity
  8
0
 62
   253
100
AcDbLine
 10
309.7599999999999
 20
-1.6400000000012
 30
86.79999999999988
 11
309.7599999999999
 21
-1.640000000000373
 31
15.11052362656889
  0
LINE
  5
4CC
330
1F
100
AcDbEntity
  8
0
 62
   253
100
AcDbLine
 10
260.26
 20
-1.64000000000122
 30
86.79999999999988
 11
309.7599999999999
 21
-1.6400000000012
 31
86.79999999999988
  0
LINE
  5
4CD
330
1F
100
AcDbEntity
  8
0
 62
   253
100
AcDbLine
 10
260.26
 20
-1.6400000000004
 30
15.11052362656889
 11
260.26
 21
-1.64000000000122
 31
86.79999999999988
  0
LINE
  5
4CE
330
1F
100
AcDbEntity
  8
0
 62
   253
100
AcDbLine
 10
299.7599999999997
 20
-1.640000000000596
 30
25.11052362656889
 11
270.2599999999998
 21
-1.640000000000758
 31
25.11052362656889
  0
LINE
  5
4CF
330
1F
100
AcDbEntity
  8
0
 62
   253
100
AcDbLine
 10
270.2599999999998
 20
-1.640000000000758
 30
25.11052362656889
 11
270.26
 21
-1.64000000000126
 31
76.79999999999988
  0
LINE
  5
4D0
330
1F
100
AcDbEntity
  8
0
 62
   253
100
AcDbLine
 10
270.26
 20
-1.64000000000126
 30
76.79999999999988
 11
299.7599999999996
 21
-1.640000000001283
 31
76.79999999999988
  0
LINE
  5
4D1
330
1F
100
AcDbEntity
  8
0
 62
   253
100
AcDbLine
 10
299.7599999999996
 20
-1.640000000001283
 30
76.79999999999988
 11
299.7599999999997
 21
-1.640000000000596
 31
25.11052362656889
  0
POLYLINE
  5
4D2
330
1F
100
AcDbEntity
  8
0
 62
     0
100
AcDbPolyFaceMesh
 66
     1
 10
0.0
 20
0.0
 30
0.0
 70
    64
 71
     4
 72
     2
1001
ACAD_MATERIAL_MAPPER
1070
     1
1070
     1
1070
     1
1011
0.0
1021
0.0000000000000246
1031
-0.0000000000000125
1011
0.0
1021
2.540000000000024
1031
-0.0000000000000125
1011
0.0
1021
0.0000000000000246
1031
2.539999999999988
1011
1.0
1021
0.0000000000000246
1031
-0.0000000000000125
  0
VERTEX
  5
4D3
330
4D2
100
AcDbEntity
  8
0
 62
     0
100
AcDbVertex
100
AcDbPolyFaceMeshVertex
 10
309.7599999999999
 20
-1.640000000000373
 30
15.11052362656889
 70
   192
  0
VERTEX
  5
4D4
330
4D2
100
AcDbEntity
  8
0
 62
     0
100
AcDbVertex
100
AcDbPolyFaceMeshVertex
 10
309.7599999999999
 20
-0.0000000000012695
 30
86.79999999999988
 70
   192
  0
VERTEX
  5
4D5
330
4D2
100
AcDbEntity
  8
0
 62
     0
100
AcDbVertex
100
AcDbPolyFaceMeshVertex
 10
309.7599999999999
 20
-1.6400000000012
 30
86.79999999999988
 70
   192
  0
VERTEX
  5
4D6
330
4D2
100
AcDbEntity
  8
0
 62
     0
100
AcDbVertex
100
AcDbPolyFaceMeshVertex
 10
309.7599999999998
 20
-0.000000000000379
 30
15.11052362656892
 70
   192
  0
VERTEX
  5
4D7
330
4D2
100
AcDbEntity
  8
0
 62
     0
100
AcDbFaceRecord
 10
0.0
 20
0.0
 30
0.0
 70
   128
 71
    -1
 72
     2
 73
     3
  0
VERTEX
  5
4D8
330
4D2
100
AcDbEntity
  8
0
 62
     0
100
AcDbFaceRecord
 10
0.0
 20
0.0
 30
0.0
 70
   128
 71
    -2
 72
     1
 73
     4
  0
SEQEND
  5
4D9
330
4D2
100
AcDbEntity
  8
0
 62
     0
  0
LINE
  5
4DA
330
1F
100
AcDbEntity
  8
0
 62
   253
100
AcDbLine
 10
309.7599999999999
 20
-0.0000000000012695
 30
86.79999999999988
 11
309.7599999999998
 21
-0.000000000000379
 31
15.11052362656892
  0
LINE
  5
4DB
330
1F
100
AcDbEntity
  8
0
 62
   253
100
AcDbLine
 10
309.7599999999999
 20
-0.0000000000012695
 30
86.79999999999988
 11
309.7599999999999
 21
-1.6400000000012
 31
86.79999999999988
  0
LINE
  5
4DC
330
1F
100
AcDbEntity
  8
0
 62
   253
100
AcDbLine
 10
309.7599999999999
 20
-1.6400000000012
 30
86.79999999999988
 11
309.7599999999999
 21
-1.640000000000373
 31
15.11052362656889
  0
LINE
  5
4DD
330
1F
100
AcDbEntity
  8
0
 62
   253
100
AcDbLine
 10
309.7599999999998
 20
-0.000000000000379
 30
15.11052362656892
 11
309.7599999999999
 21
-1.640000000000373
 31
15.11052362656889
  0
POLYLINE
  5
4DE
330
1F
100
AcDbEntity
  8
0
 62
   253
100
AcDbPolyFaceMesh
 66
     1
 10
0.0
 20
0.0
 30
0.0
 70
    64
 71
     4
 72
     2
1001
ACAD_MATERIAL_MAPPER
1070
     1
1070
     1
1070
     1
1011
-0.0000000000000126
1021
0.0000000000038208
1031
0.0
1011
2.539999999999988
1021
0.0000000000038208
1031
0.0
1011
-0.0000000000000126
1021
2.540000000003821
1031
0.0
1011
-0.0000000000000126
1021
0.0000000000038208
1031
1.0
  0
VERTEX
  5
4DF
330
4DE
100
AcDbEntity
  8
0
 62
   253
100
AcDbVertex
100
AcDbPolyFaceMeshVertex
 10
50.26000000000004
 20
-0.8200000000010471
 30
86.79999999999993
 70
   192
  0
VERTEX
  5
4E0
330
4DE
100
AcDbEntity
  8
0
 62
   253
100
AcDbVertex
100
AcDbPolyFaceMeshVertex
 10
121.2800000000001
 20
-0.0000000000011517
 30
86.79999999999988
 70
   192
  0
VERTEX
  5
4E1
330
4DE
100
AcDbEntity
  8
0
 62
   253
100
AcDbVertex
100
AcDbPolyFaceMeshVertex
 10
50.26000000000001
 20
-0.0000000000011172
 30
86.79999999999988
 70
   192
  0
VERTEX
  5
4E2
330
4DE
100
AcDbEntity
  8
0
 62
   253
100
AcDbVertex
100
AcDbPolyFaceMeshVertex
 10
121.2800000000001
 20
-0.820000000001084
 30
86.79999999999993
 70
   192
  0
VERTEX
  5
4E3
330
4DE
100
AcDbEntity
  8
0
 62
   253
100
AcDbFaceRecord
 10
0.0
 20
0.0
 30
0.0
 70
   128
 71
    -1
 72
     2
 73
     3
  0
VERTEX
  5
4E4
330
4DE
100
AcDbEntity
  8
0
 62
   253
100
AcDbFaceRecord
 10
0.0
 20
0.0
 30
0.0
 70
   128
 71
    -2
 72
     1
 73
     4
  0
SEQEND
  5
4E5
330
4DE
100
AcDbEntity
  8
0
 62
   253
  0
LINE
  5
4E6
330
1F
100
AcDbEntity
  8
0
 62
   253
100
AcDbLine
 10
50.26000000000001
 20
-0.0000000000011172
 30
86.79999999999988
 11
121.2800000000001
 21
-0.0000000000011517
 31
86.79999999999988
  0
LINE
  5
4E7
330
1F
100
AcDbEntity
  8
0
 62
   253
100
AcDbLine
 10
50.26000000000001
 20
-0.0000000000011172
 30
86.79999999999988
 11
50.26000000000004
 21
-0.8200000000010471
 31
86.79999999999993
  0
LINE
  5
4E8
330
1F
100
AcDbEntity
  8
0
 62
   253
100
AcDbLine
 10
50.26000000000004
 20
-0.8200000000010471
 30
86.79999999999993
 11
121.2800000000001
 21
-0.820000000001084
 31
86.79999999999993
  0
LINE
  5
4E9
330
1F
100
AcDbEntity
  8
0
 62
   253
100
AcDbLine
 10
121.2800000000001
 20
-0.0000000000011517
 30
86.79999999999988
 11
121.2800000000001
 21
-0.820000000001084
 31
86.79999999999993
  0
POLYLINE
  5
4EA
330
1F
100
AcDbEntity
  8
0
 62
     0
100
AcDbPolyFaceMesh
 66
     1
 10
0.0
 20
0.0
 30
0.0
 70
    64
 71
    16
 72
    14
1001
ACAD_MATERIAL_MAPPER
1070
     1
1070
     1
1070
     1
1011
0.0
1021
0.0
1031
0.0
1011
2.54
1021
0.0
1031
0.0
1011
0.0
1021
0.0
1031
2.54
1011
0.0
1021
1.0
1031
0.0
  0
VERTEX
  5
4EB
330
4EA
100
AcDbEntity
  8
0
 62
     0
100
AcDbVertex
100
AcDbPolyFaceMeshVertex
 10
309.9999999999999
 20
-0.0000000000004303
 30
15.11052362656892
 70
   192
  0
VERTEX
  5
4EC
330
4EA
100
AcDbEntity
  8
0
 62
     0
100
AcDbVertex
100
AcDbPolyFaceMeshVertex
 10
0.0
 20
0.0
 30
0.0
 70
   192
  0
VERTEX
  5
4ED
330
4EA
100
AcDbEntity
  8
0
 62
     0
100
AcDbVertex
100
AcDbPolyFaceMeshVertex
 10
309.9999999999999
 20
-0.0000000000003266
 30
0.0
 70
   192
  0
VERTEX
  5
4EE
330
4EA
100
AcDbEntity
  8
0
 62
     0
100
AcDbVertex
100
AcDbPolyFaceMeshVertex
 10
49.77999999999989
 20
-0.0000000000003593
 30
14.99999999999993
 70
   192
  0
VERTEX
  5
4EF
330
4EA
100
AcDbEntity
  8
0
 62
     0
100
AcDbVertex
100
AcDbPolyFaceMeshVertex
 10
0.2399999999999452
 20
-0.0000000000002527
 30
14.99999999999993
 70
   192
  0
VERTEX
  5
4F0
330
4EA
100
AcDbEntity
  8
0
 62
     0
100
AcDbVertex
100
AcDbPolyFaceMeshVertex
 10
121.7599999999999
 20
-0.0000000000003012
 30
15.11052362656892
 70
   192
  0
VERTEX
  5
4F1
330
4EA
100
AcDbEntity
  8
0
 62
     0
100
AcDbVertex
100
AcDbPolyFaceMeshVertex
 10
190.3799999999999
 20
-0.0000000000003285
 30
15.11052362656892
 70
   192
  0
VERTEX
  5
4F2
330
4EA
100
AcDbEntity
  8
0
 62
     0
100
AcDbVertex
100
AcDbPolyFaceMeshVertex
 10
309.7599999999998
 20
-0.000000000000379
 30
15.11052362656892
 70
   192
  0
VERTEX
  5
4F3
330
4EA
100
AcDbEntity
  8
0
 62
     0
100
AcDbVertex
100
AcDbPolyFaceMeshVertex
 10
260.2599999999998
 20
-0.0000000000002955
 30
15.11052362656892
 70
   192
  0
VERTEX
  5
4F4
330
4EA
100
AcDbEntity
  8
0
 62
     0
100
AcDbVertex
100
AcDbPolyFaceMeshVertex
 10
259.7799999999999
 20
-0.0000000000003367
 30
15.11052362656892
 70
   192
  0
VERTEX
  5
4F5
330
4EA
100
AcDbEntity
  8
0
 62
     0
100
AcDbVertex
100
AcDbPolyFaceMeshVertex
 10
190.86
 20
-0.0000000000003421
 30
15.11052362656892
 70
   192
  0
VERTEX
  5
4F6
330
4EA
100
AcDbEntity
  8
0
 62
     0
100
AcDbVertex
100
AcDbPolyFaceMeshVertex
 10
121.28
 20
-0.0000000000003034
 30
15.11052362656892
 70
   192
  0
VERTEX
  5
4F7
330
4EA
100
AcDbEntity
  8
0
 62
     0
100
AcDbVertex
100
AcDbPolyFaceMeshVertex
 10
49.77999999999992
 20
-0.0000000000002773
 30
15.11052362656892
 70
   192
  0
VERTEX
  5
4F8
330
4EA
100
AcDbEntity
  8
0
 62
     0
100
AcDbVertex
100
AcDbPolyFaceMeshVertex
 10
50.26000000000003
 20
-0.0000000000002887
 30
15.11052362656892
 70
   192
  0
VERTEX
  5
4F9
330
4EA
100
AcDbEntity
  8
0
 62
     0
100
AcDbVertex
100
AcDbPolyFaceMeshVertex
 10
0.0
 20
-0.0000000000002527
 30
15.11052362656892
 70
   192
  0
VERTEX
  5
4FA
330
4EA
100
AcDbEntity
  8
0
 62
     0
100
AcDbVertex
100
AcDbPolyFaceMeshVertex
 10
0.2399999999999452
 20
-0.0000000000002527
 30
15.11052362656892
 70
   192
  0
VERTEX
  5
4FB
330
4EA
100
AcDbEntity
  8
0
 62
     0
100
AcDbFaceRecord
 10
0.0
 20
0.0
 30
0.0
 70
   128
 71
    -1
 72
     2
 73
     3
  0
VERTEX
  5
4FC
330
4EA
100
AcDbEntity
  8
0
 62
     0
100
AcDbFaceRecord
 10
0.0
 20
0.0
 30
0.0
 70
   128
 71
    -2
 72
    -1
 73
    -4
  0
VERTEX
  5
4FD
330
4EA
100
AcDbEntity
  8
0
 62
     0
100
AcDbFaceRecord
 10
0.0
 20
0.0
 30
0.0
 70
   128
 71
    -2
 72
     4
 73
    -5
  0
VERTEX
  5
4FE
330
4EA
100
AcDbEntity
  8
0
 62
     0
100
AcDbFaceRecord
 10
0.0
 20
0.0
 30
0.0
 70
   128
 71
    -4
 72
    -1
 73
    -6
  0
VERTEX
  5
4FF
330
4EA
100
AcDbEntity
  8
0
 62
     0
100
AcDbFaceRecord
 10
0.0
 20
0.0
 30
0.0
 70
   128
 71
    -6
 72
    -1
 73
     7
  0
VERTEX
  5
500
330
4EA
100
AcDbEntity
  8
0
 62
     0
100
AcDbFaceRecord
 10
0.0
 20
0.0
 30
0.0
 70
   128
 71
    -7
 72
     1
 73
    -8
  0
VERTEX
  5
501
330
4EA
100
AcDbEntity
  8
0
 62
     0
100
AcDbFaceRecord
 10
0.0
 20
0.0
 30
0.0
 70
   128
 71
    -7
 72
     8
 73
    -9
  0
VERTEX
  5
502
330
4EA
100
AcDbEntity
  8
0
 62
     0
100
AcDbFaceRecord
 10
0.0
 20
0.0
 30
0.0
 70
   128
 71
    -7
 72
     9
 73
   -10
  0
VERTEX
  5
503
330
4EA
100
AcDbEntity
  8
0
 62
     0
100
AcDbFaceRecord
 10
0.0
 20
0.0
 30
0.0
 70
   128
 71
    -7
 72
    10
 73
    11
  0
VERTEX
  5
504
330
4EA
100
AcDbEntity
  8
0
 62
     0
100
AcDbFaceRecord
 10
0.0
 20
0.0
 30
0.0
 70
   128
 71
    -4
 72
   -12
 73
    13
  0
VERTEX
  5
505
330
4EA
100
AcDbEntity
  8
0
 62
     0
100
AcDbFaceRecord
 10
0.0
 20
0.0
 30
0.0
 70
   128
 71
   -12
 72
    -4
 73
     6
  0
VERTEX
  5
506
330
4EA
100
AcDbEntity
  8
0
 62
     0
100
AcDbFaceRecord
 10
0.0
 20
0.0
 30
0.0
 70
   128
 71
   -13
 72
    12
 73
    14
  0
VERTEX
  5
507
330
4EA
100
AcDbEntity
  8
0
 62
     0
100
AcDbFaceRecord
 10
0.0
 20
0.0
 30
0.0
 70
   128
 71
    -5
 72
    15
 73
    -2
  0
VERTEX
  5
508
330
4EA
100
AcDbEntity
  8
0
 62
     0
100
AcDbFaceRecord
 10
0.0
 20
0.0
 30
0.0
 70
   128
 71
   -15
 72
     5
 73
    16
  0
SEQEND
  5
509
330
4EA
100
AcDbEntity
  8
0
 62
     0
  0
LINE
  5
50A
330
1F
100
AcDbEntity
  8
0
 62
   253
100
AcDbLine
 10
0.2399999999999452
 20
-0.0000000000002527
 30
15.11052362656892
 11
0.0
 21
-0.0000000000002527
 31
15.11052362656892
  0
LINE
  5
50B
330
1F
100
AcDbEntity
  8
0
 62
   253
100
AcDbLine
 10
0.0
 20
-0.0000000000002527
 30
15.11052362656892
 11
0.0
 21
0.0
 31
0.0
  0
LINE
  5
50C
330
1F
100
AcDbEntity
  8
0
 62
   253
100
AcDbLine
 10
309.9999999999999
 20
-0.0000000000003266
 30
0.0
 11
0.0
 21
0.0
 31
0.0
  0
LINE
  5
50D
330
1F
100
AcDbEntity
  8
0
 62
   253
100
AcDbLine
 10
309.9999999999999
 20
-0.0000000000004303
 30
15.11052362656892
 11
309.9999999999999
 21
-0.0000000000003266
 31
0.0
  0
LINE
  5
50E
330
1F
100
AcDbEntity
  8
0
 62
   253
100
AcDbLine
 10
309.9999999999999
 20
-0.0000000000004303
 30
15.11052362656892
 11
309.7599999999998
 21
-0.000000000000379
 31
15.11052362656892
  0
LINE
  5
50F
330
1F
100
AcDbEntity
  8
0
 62
   253
100
AcDbLine
 10
309.7599999999998
 20
-0.000000000000379
 30
15.11052362656892
 11
260.2599999999998
 21
-0.0000000000002955
 31
15.11052362656892
  0
LINE
  5
510
330
1F
100
AcDbEntity
  8
0
 62
   253
100
AcDbLine
 10
260.2599999999998
 20
-0.0000000000002955
 30
15.11052362656892
 11
259.7799999999999
 21
-0.0000000000003367
 31
15.11052362656892
  0
LINE
  5
511
330
1F
100
AcDbEntity
  8
0
 62
   253
100
AcDbLine
 10
259.7799999999999
 20
-0.0000000000003367
 30
15.11052362656892
 11
190.86
 21
-0.0000000000003421
 31
15.11052362656892
  0
LINE
  5
512
330
1F
100
AcDbEntity
  8
0
 62
   253
100
AcDbLine
 10
190.86
 20
-0.0000000000003421
 30
15.11052362656892
 11
190.3799999999999
 21
-0.0000000000003285
 31
15.11052362656892
  0
LINE
  5
513
330
1F
100
AcDbEntity
  8
0
 62
   253
100
AcDbLine
 10
190.3799999999999
 20
-0.0000000000003285
 30
15.11052362656892
 11
121.7599999999999
 21
-0.0000000000003012
 31
15.11052362656892
  0
LINE
  5
514
330
1F
100
AcDbEntity
  8
0
 62
   253
100
AcDbLine
 10
121.7599999999999
 20
-0.0000000000003012
 30
15.11052362656892
 11
121.28
 21
-0.0000000000003034
 31
15.11052362656892
  0
LINE
  5
515
330
1F
100
AcDbEntity
  8
0
 62
   253
100
AcDbLine
 10
121.28
 20
-0.0000000000003034
 30
15.11052362656892
 11
50.26000000000003
 21
-0.0000000000002887
 31
15.11052362656892
  0
LINE
  5
516
330
1F
100
AcDbEntity
  8
0
 62
   253
100
AcDbLine
 10
50.26000000000003
 20
-0.0000000000002887
 30
15.11052362656892
 11
49.77999999999992
 21
-0.0000000000002773
 31
15.11052362656892
  0
LINE
  5
517
330
1F
100
AcDbEntity
  8
0
 62
   253
100
AcDbLine
 10
49.77999999999992
 20
-0.0000000000002773
 30
15.11052362656892
 11
49.77999999999989
 21
-0.0000000000003593
 31
14.99999999999993
  0
LINE
  5
518
330
1F
100
AcDbEntity
  8
0
 62
   253
100
AcDbLine
 10
49.77999999999989
 20
-0.0000000000003593
 30
14.99999999999993
 11
0.2399999999999452
 21
-0.0000000000002527
 31
14.99999999999993
  0
LINE
  5
519
330
1F
100
AcDbEntity
  8
0
 62
   253
100
AcDbLine
 10
0.2399999999999452
 20
-0.0000000000002527
 30
14.99999999999993
 11
0.2399999999999452
 21
-0.0000000000002527
 31
15.11052362656892
  0
POLYLINE
  5
51A
330
1F
100
AcDbEntity
  8
0
 62
     0
100
AcDbPolyFaceMesh
 66
     1
 10
0.0
 20
0.0
 30
0.0
 70
    64
 71
     5
 72
     3
1001
ACAD_MATERIAL_MAPPER
1070
     1
1070
     1
1070
     1
1011
0.0
1021
0.0000000000000247
1031
0.0000000000000035
1011
0.0
1021
2.540000000000025
1031
0.0000000000000044
1011
0.0
1021
0.0000000000000247
1031
2.540000000000003
1011
1.0
1021
0.0000000000000247
1031
0.0000000000000035
  0
VERTEX
  5
51B
330
51A
100
AcDbEntity
  8
0
 62
     0
100
AcDbVertex
100
AcDbPolyFaceMeshVertex
 10
309.9999999999999
 20
-0.0000000000004303
 30
15.11052362656892
 70
   192
  0
VERTEX
  5
51C
330
51A
100
AcDbEntity
  8
0
 62
     0
100
AcDbVertex
100
AcDbPolyFaceMeshVertex
 10
310.0
 20
46.57599999999896
 30
87.00000000000045
 70
   192
  0
VERTEX
  5
51D
330
51A
100
AcDbEntity
  8
0
 62
     0
100
AcDbVertex
100
AcDbPolyFaceMeshVertex
 10
309.9999999999999
 20
-0.0000000000012588
 30
86.99999999999989
 70
   192
  0
VERTEX
  5
51E
330
51A
100
AcDbEntity
  8
0
 62
     0
100
AcDbVertex
100
AcDbPolyFaceMeshVertex
 10
309.9999999999999
 20
-0.0000000000003266
 30
0.0
 70
   192
  0
VERTEX
  5
51F
330
51A
100
AcDbEntity
  8
0
 62
     0
100
AcDbVertex
100
AcDbPolyFaceMeshVertex
 10
310.0
 20
32.8000000000002
 30
0.0000000000005595
 70
   192
  0
VERTEX
  5
520
330
51A
100
AcDbEntity
  8
0
 62
     0
100
AcDbFaceRecord
 10
0.0
 20
0.0
 30
0.0
 70
   128
 71
    -1
 72
     2
 73
     3
  0
VERTEX
  5
521
330
51A
100
AcDbEntity
  8
0
 62
     0
100
AcDbFaceRecord
 10
0.0
 20
0.0
 30
0.0
 70
   128
 71
    -2
 72
     1
 73
    -4
  0
VERTEX
  5
522
330
51A
100
AcDbEntity
  8
0
 62
     0
100
AcDbFaceRecord
 10
0.0
 20
0.0
 30
0.0
 70
   128
 71
    -2
 72
     4
 73
     5
  0
SEQEND
  5
523
330
51A
100
AcDbEntity
  8
0
 62
     0
  0
LINE
  5
524
330
1F
100
AcDbEntity
  8
0
 62
   253
100
AcDbLine
 10
309.9999999999999
 20
-0.0000000000012588
 30
86.99999999999989
 11
310.0
 21
46.57599999999896
 31
87.00000000000045
  0
LINE
  5
525
330
1F
100
AcDbEntity
  8
0
 62
   253
100
AcDbLine
 10
309.9999999999999
 20
-0.0000000000012588
 30
86.99999999999989
 11
309.9999999999999
 21
-0.0000000000004303
 31
15.11052362656892
  0
LINE
  5
526
330
1F
100
AcDbEntity
  8
0
 62
   253
100
AcDbLine
 10
309.9999999999999
 20
-0.0000000000004303
 30
15.11052362656892
 11
309.9999999999999
 21
-0.0000000000003266
 31
0.0
  0
LINE
  5
527
330
1F
100
AcDbEntity
  8
0
 62
   253
100
AcDbLine
 10
309.9999999999999
 20
-0.0000000000003266
 30
0.0
 11
310.0
 21
32.8000000000002
 31
0.0000000000005595
  0
LINE
  5
528
330
1F
100
AcDbEntity
  8
0
 62
   253
100
AcDbLine
 10
310.0
 20
46.57599999999896
 30
87.00000000000045
 11
310.0
 21
32.8000000000002
 31
0.0000000000005595
  0
POLYLINE
  5
529
330
1F
100
AcDbEntity
  8
0
 62
   253
100
AcDbPolyFaceMesh
 66
     1
 10
0.0
 20
0.0
 30
0.0
 70
    64
 71
    22
 72
    20
1001
ACAD_MATERIAL_MAPPER
1070
     1
1070
     1
1070
     1
1011
0.0000000000870625
1021
0.0
1031
0.0000000000054414
1011
2.540000000087008
1021
0.0
1031
0.0000000000054414
1011
0.0000000000870625
1021
0.0
1031
2.540000000005516
1011
0.0000000000870625
1021
1.0
1031
0.0000000000054414
  0
VERTEX
  5
52A
330
529
100
AcDbEntity
  8
0
 62
   253
100
AcDbVertex
100
AcDbPolyFaceMeshVertex
 10
309.9999999999999
 20
-0.0000000000012588
 30
86.99999999999989
 70
   192
  0
VERTEX
  5
52B
330
529
100
AcDbEntity
  8
0
 62
   253
100
AcDbVertex
100
AcDbPolyFaceMeshVertex
 10
309.7599999999998
 20
-0.000000000000379
 30
15.11052362656892
 70
   192
  0
VERTEX
  5
52C
330
529
100
AcDbEntity
  8
0
 62
   253
100
AcDbVertex
100
AcDbPolyFaceMeshVertex
 10
309.9999999999999
 20
-0.0000000000004303
 30
15.11052362656892
 70
   192
  0
VERTEX
  5
52D
330
529
100
AcDbEntity
  8
0
 62
   253
100
AcDbVertex
100
AcDbPolyFaceMeshVertex
 10
309.7599999999999
 20
-0.0000000000012695
 30
86.79999999999988
 70
   192
  0
VERTEX
  5
52E
330
529
100
AcDbEntity
  8
0
 62
   253
100
AcDbVertex
100
AcDbPolyFaceMeshVertex
 10
260.2599999999999
 20
-0.000000000001115
 30
86.79999999999988
 70
   192
  0
VERTEX
  5
52F
330
529
100
AcDbEntity
  8
0
 62
   253
100
AcDbVertex
100
AcDbPolyFaceMeshVertex
 10
259.7799999999999
 20
-0.000000000001278
 30
86.79999999999988
 70
   192
  0
VERTEX
  5
530
330
529
100
AcDbEntity
  8
0
 62
   253
100
AcDbVertex
100
AcDbPolyFaceMeshVertex
 10
190.86
 20
-0.0000000000011776
 30
86.79999999999988
 70
   192
  0
VERTEX
  5
531
330
529
100
AcDbEntity
  8
0
 62
   253
100
AcDbVertex
100
AcDbPolyFaceMeshVertex
 10
190.3799999999999
 20
-0.000000000001126
 30
86.79999999999988
 70
   192
  0
VERTEX
  5
532
330
529
100
AcDbEntity
  8
0
 62
   253
100
AcDbVertex
100
AcDbPolyFaceMeshVertex
 10
121.76
 20
-0.0000000000012047
 30
86.79999999999988
 70
   192
  0
VERTEX
  5
533
330
529
100
AcDbEntity
  8
0
 62
   253
100
AcDbVertex
100
AcDbPolyFaceMeshVertex
 10
121.2800000000001
 20
-0.0000000000011517
 30
86.79999999999988
 70
   192
  0
VERTEX
  5
534
330
529
100
AcDbEntity
  8
0
 62
   253
100
AcDbVertex
100
AcDbPolyFaceMeshVertex
 10
50.26000000000001
 20
-0.0000000000011172
 30
86.79999999999988
 70
   192
  0
VERTEX
  5
535
330
529
100
AcDbEntity
  8
0
 62
   253
100
AcDbVertex
100
AcDbPolyFaceMeshVertex
 10
49.77999999999994
 20
-0.0000000000010251
 30
86.79999999999988
 70
   192
  0
VERTEX
  5
536
330
529
100
AcDbEntity
  8
0
 62
   253
100
AcDbVertex
100
AcDbPolyFaceMeshVertex
 10
0.2399999999999453
 20
-0.0000000000010107
 30
86.79999999999988
 70
   192
  0
VERTEX
  5
537
330
529
100
AcDbEntity
  8
0
 62
   253
100
AcDbVertex
100
AcDbPolyFaceMeshVertex
 10
0.0
 20
-0.0000000000002527
 30
15.11052362656892
 70
   192
  0
VERTEX
  5
538
330
529
100
AcDbEntity
  8
0
 62
   253
100
AcDbVertex
100
AcDbPolyFaceMeshVertex
 10
0.2399999999999452
 20
-0.0000000000002527
 30
15.11052362656892
 70
   192
  0
VERTEX
  5
539
330
529
100
AcDbEntity
  8
0
 62
   253
100
AcDbVertex
100
AcDbPolyFaceMeshVertex
 10
0.0
 20
-0.0000000000010107
 30
86.99999999999989
 70
   192
  0
VERTEX
  5
53A
330
529
100
AcDbEntity
  8
0
 62
   253
100
AcDbVertex
100
AcDbPolyFaceMeshVertex
 10
49.77999999999992
 20
-0.0000000000002773
 30
15.11052362656892
 70
   192
  0
VERTEX
  5
53B
330
529
100
AcDbEntity
  8
0
 62
   253
100
AcDbVertex
100
AcDbPolyFaceMeshVertex
 10
50.26000000000003
 20
-0.0000000000002887
 30
15.11052362656892
 70
   192
  0
VERTEX
  5
53C
330
529
100
AcDbEntity
  8
0
 62
   253
100
AcDbVertex
100
AcDbPolyFaceMeshVertex
 10
190.3799999999999
 20
-0.0000000000003285
 30
15.11052362656892
 70
   192
  0
VERTEX
  5
53D
330
529
100
AcDbEntity
  8
0
 62
   253
100
AcDbVertex
100
AcDbPolyFaceMeshVertex
 10
190.86
 20
-0.0000000000003421
 30
15.11052362656892
 70
   192
  0
VERTEX
  5
53E
330
529
100
AcDbEntity
  8
0
 62
   253
100
AcDbVertex
100
AcDbPolyFaceMeshVertex
 10
259.7799999999999
 20
-0.0000000000003367
 30
15.11052362656892
 70
   192
  0
VERTEX
  5
53F
330
529
100
AcDbEntity
  8
0
 62
   253
100
AcDbVertex
100
AcDbPolyFaceMeshVertex
 10
260.2599999999998
 20
-0.0000000000002955
 30
15.11052362656892
 70
   192
  0
VERTEX
  5
540
330
529
100
AcDbEntity
  8
0
 62
   253
100
AcDbFaceRecord
 10
0.0
 20
0.0
 30
0.0
 70
   128
 71
    -1
 72
     2
 73
     3
  0
VERTEX
  5
541
330
529
100
AcDbEntity
  8
0
 62
   253
100
AcDbFaceRecord
 10
0.0
 20
0.0
 30
0.0
 70
   128
 71
    -2
 72
    -1
 73
     4
  0
VERTEX
  5
542
330
529
100
AcDbEntity
  8
0
 62
   253
100
AcDbFaceRecord
 10
0.0
 20
0.0
 30
0.0
 70
   128
 71
    -4
 72
    -1
 73
     5
  0
VERTEX
  5
543
330
529
100
AcDbEntity
  8
0
 62
   253
100
AcDbFaceRecord
 10
0.0
 20
0.0
 30
0.0
 70
   128
 71
    -5
 72
    -1
 73
    -6
  0
VERTEX
  5
544
330
529
100
AcDbEntity
  8
0
 62
   253
100
AcDbFaceRecord
 10
0.0
 20
0.0
 30
0.0
 70
   128
 71
    -6
 72
    -1
 73
     7
  0
VERTEX
  5
545
330
529
100
AcDbEntity
  8
0
 62
   253
100
AcDbFaceRecord
 10
0.0
 20
0.0
 30
0.0
 70
   128
 71
    -7
 72
    -1
 73
    -8
  0
VERTEX
  5
546
330
529
100
AcDbEntity
  8
0
 62
   253
100
AcDbFaceRecord
 10
0.0
 20
0.0
 30
0.0
 70
   128
 71
    -8
 72
    -1
 73
     9
  0
VERTEX
  5
547
330
529
100
AcDbEntity
  8
0
 62
   253
100
AcDbFaceRecord
 10
0.0
 20
0.0
 30
0.0
 70
   128
 71
    -9
 72
    -1
 73
    10
  0
VERTEX
  5
548
330
529
100
AcDbEntity
  8
0
 62
   253
100
AcDbFaceRecord
 10
0.0
 20
0.0
 30
0.0
 70
   128
 71
   -10
 72
    -1
 73
    11
  0
VERTEX
  5
549
330
529
100
AcDbEntity
  8
0
 62
   253
100
AcDbFaceRecord
 10
0.0
 20
0.0
 30
0.0
 70
   128
 71
   -11
 72
    -1
 73
   -12
  0
VERTEX
  5
54A
330
529
100
AcDbEntity
  8
0
 62
   253
100
AcDbFaceRecord
 10
0.0
 20
0.0
 30
0.0
 70
   128
 71
   -12
 72
    -1
 73
    13
  0
VERTEX
  5
54B
330
529
100
AcDbEntity
  8
0
 62
   253
100
AcDbFaceRecord
 10
0.0
 20
0.0
 30
0.0
 70
   128
 71
   -13
 72
    14
 73
    15
  0
VERTEX
  5
54C
330
529
100
AcDbEntity
  8
0
 62
   253
100
AcDbFaceRecord
 10
0.0
 20
0.0
 30
0.0
 70
   128
 71
   -14
 72
   -13
 73
    16
  0
VERTEX
  5
54D
330
529
100
AcDbEntity
  8
0
 62
   253
100
AcDbFaceRecord
 10
0.0
 20
0.0
 30
0.0
 70
   128
 71
   -16
 72
   -13
 73
     1
  0
VERTEX
  5
54E
330
529
100
AcDbEntity
  8
0
 62
   253
100
AcDbFaceRecord
 10
0.0
 20
0.0
 30
0.0
 70
   128
 71
   -11
 72
    17
 73
    18
  0
VERTEX
  5
54F
330
529
100
AcDbEntity
  8
0
 62
   253
100
AcDbFaceRecord
 10
0.0
 20
0.0
 30
0.0
 70
   128
 71
   -17
 72
   -11
 73
    12
  0
VERTEX
  5
550
330
529
100
AcDbEntity
  8
0
 62
   253
100
AcDbFaceRecord
 10
0.0
 20
0.0
 30
0.0
 70
   128
 71
    -7
 72
    19
 73
    20
  0
VERTEX
  5
551
330
529
100
AcDbEntity
  8
0
 62
   253
100
AcDbFaceRecord
 10
0.0
 20
0.0
 30
0.0
 70
   128
 71
   -19
 72
    -7
 73
     8
  0
VERTEX
  5
552
330
529
100
AcDbEntity
  8
0
 62
   253
100
AcDbFaceRecord
 10
0.0
 20
0.0
 30
0.0
 70
   128
 71
    -5
 72
    21
 73
    22
  0
VERTEX
  5
553
330
529
100
AcDbEntity
  8
0
 62
   253
100
AcDbFaceRecord
 10
0.0
 20
0.0
 30
0.0
 70
   128
 71
   -21
 72
    -5
 73
     6
  0
SEQEND
  5
554
330
529
100
AcDbEntity
  8
0
 62
   253
  0
LINE
  5
555
330
1F
100
AcDbEntity
  8
0
 62
   253
100
AcDbLine
 10
309.9999999999999
 20
-0.0000000000004303
 30
15.11052362656892
 11
309.7599999999998
 21
-0.000000000000379
 31
15.11052362656892
  0
LINE
  5
556
330
1F
100
AcDbEntity
  8
0
 62
   253
100
AcDbLine
 10
309.9999999999999
 20
-0.0000000000012588
 30
86.99999999999989
 11
309.9999999999999
 21
-0.0000000000004303
 31
15.11052362656892
  0
LINE
  5
557
330
1F
100
AcDbEntity
  8
0
 62
   253
100
AcDbLine
 10
309.9999999999999
 20
-0.0000000000012588
 30
86.99999999999989
 11
0.0
 21
-0.0000000000010107
 31
86.99999999999989
  0
LINE
  5
558
330
1F
100
AcDbEntity
  8
0
 62
   253
100
AcDbLine
 10
0.0
 20
-0.0000000000010107
 30
86.99999999999989
 11
0.0
 21
-0.0000000000002527
 31
15.11052362656892
  0
LINE
  5
559
330
1F
100
AcDbEntity
  8
0
 62
   253
100
AcDbLine
 10
0.2399999999999452
 20
-0.0000000000002527
 30
15.11052362656892
 11
0.0
 21
-0.0000000000002527
 31
15.11052362656892
  0
LINE
  5
55A
330
1F
100
AcDbEntity
  8
0
 62
   253
100
AcDbLine
 10
0.2399999999999452
 20
-0.0000000000002527
 30
15.11052362656892
 11
0.2399999999999453
 21
-0.0000000000010107
 31
86.79999999999988
  0
LINE
  5
55B
330
1F
100
AcDbEntity
  8
0
 62
   253
100
AcDbLine
 10
0.2399999999999453
 20
-0.0000000000010107
 30
86.79999999999988
 11
49.77999999999994
 21
-0.0000000000010251
 31
86.79999999999988
  0
LINE
  5
55C
330
1F
100
AcDbEntity
  8
0
 62
   253
100
AcDbLine
 10
49.77999999999994
 20
-0.0000000000010251
 30
86.79999999999988
 11
49.77999999999992
 21
-0.0000000000002773
 31
15.11052362656892
  0
LINE
  5
55D
330
1F
100
AcDbEntity
  8
0
 62
   253
100
AcDbLine
 10
50.26000000000003
 20
-0.0000000000002887
 30
15.11052362656892
 11
49.77999999999992
 21
-0.0000000000002773
 31
15.11052362656892
  0
LINE
  5
55E
330
1F
100
AcDbEntity
  8
0
 62
   253
100
AcDbLine
 10
50.26000000000003
 20
-0.0000000000002887
 30
15.11052362656892
 11
50.26000000000001
 21
-0.0000000000011172
 31
86.79999999999988
  0
LINE
  5
55F
330
1F
100
AcDbEntity
  8
0
 62
   253
100
AcDbLine
 10
50.26000000000001
 20
-0.0000000000011172
 30
86.79999999999988
 11
121.2800000000001
 21
-0.0000000000011517
 31
86.79999999999988
  0
LINE
  5
560
330
1F
100
AcDbEntity
  8
0
 62
   253
100
AcDbLine
 10
121.2800000000001
 20
-0.0000000000011517
 30
86.79999999999988
 11
121.76
 21
-0.0000000000012047
 31
86.79999999999988
  0
LINE
  5
561
330
1F
100
AcDbEntity
  8
0
 62
   253
100
AcDbLine
 10
121.76
 20
-0.0000000000012047
 30
86.79999999999988
 11
190.3799999999999
 21
-0.000000000001126
 31
86.79999999999988
  0
LINE
  5
562
330
1F
100
AcDbEntity
  8
0
 62
   253
100
AcDbLine
 10
190.3799999999999
 20
-0.000000000001126
 30
86.79999999999988
 11
190.3799999999999
 21
-0.0000000000003285
 31
15.11052362656892
  0
LINE
  5
563
330
1F
100
AcDbEntity
  8
0
 62
   253
100
AcDbLine
 10
190.86
 20
-0.0000000000003421
 30
15.11052362656892
 11
190.3799999999999
 21
-0.0000000000003285
 31
15.11052362656892
  0
LINE
  5
564
330
1F
100
AcDbEntity
  8
0
 62
   253
100
AcDbLine
 10
190.86
 20
-0.0000000000011776
 30
86.79999999999988
 11
190.86
 21
-0.0000000000003421
 31
15.11052362656892
  0
LINE
  5
565
330
1F
100
AcDbEntity
  8
0
 62
   253
100
AcDbLine
 10
259.7799999999999
 20
-0.000000000001278
 30
86.79999999999988
 11
190.86
 21
-0.0000000000011776
 31
86.79999999999988
  0
LINE
  5
566
330
1F
100
AcDbEntity
  8
0
 62
   253
100
AcDbLine
 10
259.7799999999999
 20
-0.0000000000003367
 30
15.11052362656892
 11
259.7799999999999
 21
-0.000000000001278
 31
86.79999999999988
  0
LINE
  5
567
330
1F
100
AcDbEntity
  8
0
 62
   253
100
AcDbLine
 10
260.2599999999998
 20
-0.0000000000002955
 30
15.11052362656892
 11
259.7799999999999
 21
-0.0000000000003367
 31
15.11052362656892
  0
LINE
  5
568
330
1F
100
AcDbEntity
  8
0
 62
   253
100
AcDbLine
 10
260.2599999999998
 20
-0.0000000000002955
 30
15.11052362656892
 11
260.2599999999999
 21
-0.000000000001115
 31
86.79999999999988
  0
LINE
  5
569
330
1F
100
AcDbEntity
  8
0
 62
   253
100
AcDbLine
 10
260.2599999999999
 20
-0.000000000001115
 30
86.79999999999988
 11
309.7599999999999
 21
-0.0000000000012695
 31
86.79999999999988
  0
LINE
  5
56A
330
1F
100
AcDbEntity
  8
0
 62
   253
100
AcDbLine
 10
309.7599999999999
 20
-0.0000000000012695
 30
86.79999999999988
 11
309.7599999999998
 21
-0.000000000000379
 31
15.11052362656892
  0
ENDSEC
  0
SECTION
  2
OBJECTS
  0
DICTIONARY
  5
C
330
0
100
AcDbDictionary
  3
ACAD_GROUP
350
D
  3
ACAD_LAYOUT
350
1A
  3
ACAD_MATERIAL
350
43
  3
ACAD_MLEADERSTYLE
350
6B
  3
ACAD_MLINESTYLE
350
17
  3
ACAD_PLOTSETTINGS
350
19
  3
ACAD_SCALELIST
350
47
  3
ACAD_VISUALSTYLE
350
2A
  3
ACDBHEADERROUNDTRIPXREC
350
56B
  3
ACDBVARIABLEDICTIONARY
350
58C
  0
DICTIONARY
  5
593
330
8
100
AcDbDictionary
280
     1
  3
ACAD_XREC_ROUNDTRIP
360
594
  0
DICTIONARY
  5
D
102
{ACAD_REACTORS
330
C
102
}
330
C
100
AcDbDictionary
  0
DICTIONARY
  5
1A
102
{ACAD_REACTORS
330
C
102
}
330
C
100
AcDbDictionary
  0
DICTIONARY
  5
43
102
{ACAD_REACTORS
330
C
102
}
330
C
100
AcDbDictionary
  3
00_NEGRO_SATINADO
350
369
  3
BYBLOCK
350
45
  3
BYLAYER
350
44
  3
GLOBAL
350
46
  3
_COLOR_M03_
350
74
  0
DICTIONARY
  5
6B
102
{ACAD_REACTORS
330
C
102
}
330
C
100
AcDbDictionary
  3
STANDARD
350
6C
  0
DICTIONARY
  5
17
102
{ACAD_REACTORS
330
C
102
}
330
C
100
AcDbDictionary
  3
STANDARD
350
18
  0
DICTIONARY
  5
19
102
{ACAD_REACTORS
330
C
102
}
330
C
100
AcDbDictionary
  0
DICTIONARY
  5
47
102
{ACAD_REACTORS
330
C
102
}
330
C
100
AcDbDictionary
  3
A0
350
48
  3
A1
350
49
  3
A2
350
4A
  3
A3
350
4B
  3
A4
350
4C
  3
A5
350
4D
  3
A6
350
4E
  3
A7
350
4F
  3
A8
350
50
  3
A9
350
51
  3
B0
350
52
  3
B1
350
53
  3
B2
350
54
  3
B3
350
55
  3
B4
350
56
  3
B5
350
57
  3
B6
350
58
  3
B7
350
59
  3
B8
350
5A
  3
B9
350
5B
  3
C0
350
5C
  3
C1
350
5D
  3
C2
350
5E
  3
C3
350
5F
  3
C4
350
60
  3
C5
350
61
  3
C6
350
62
  3
C7
350
63
  3
C8
350
64
  3
C9
350
65
  3
D0
350
66
  3
D1
350
67
  3
D2
350
68
  0
DICTIONARY
  5
2A
102
{ACAD_REACTORS
330
C
102
}
330
C
100
AcDbDictionary
  3
2DWIREFRAME
350
2F
  3
BASIC
350
32
  3
BRIGHTEN
350
36
  3
COLORCHANGE
350
3A
  3
CONCEPTUAL
350
34
  3
DIM
350
35
  3
EDGECOLOROFF
350
3D
  3
FACEPATTERN
350
39
  3
FLAT
350
2B
  3
FLATWITHEDGES
350
2C
  3
GOURAUD
350
2D
  3
GOURAUDWITHEDGES
350
2E
  3
HIDDEN
350
31
  3
JITTEROFF
350
3B
  3
LINEPATTERN
350
38
  3
OVERHANGOFF
350
3C
  3
REALISTIC
350
33
  3
SHADED
350
42
  3
SHADED_WITH_EDGES
350
41
  3
SHADES_OF_GRAY
350
3E
  3
SKETCHY
350
3F
  3
THICKEN
350
37
  3
WIREFRAME
350
30
  3
X-RAY
350
40
  0
DICTIONARY
  5
56B
102
{ACAD_REACTORS
330
C
102
}
330
C
100
AcDbDictionary
  3
CEPSNID
350
575
  3
CEPSNTYPE
350
574
  3
DIMSTYLEDATA
350
58B
  3
FINGERPRINTGUID
350
576
  3
HYPERLINKBASE
350
56E
  3
INSUNITS
350
573
  3
LAYOUTDICT
350
570
  3
LWETCUNION
350
572
  3
PLOTSETDICT
350
571
  3
PSVPSCALE
350
578
  3
PUCSBASE
350
57B
  3
PUCSORGBACK
350
581
  3
PUCSORGBOTTOM
350
57D
  3
PUCSORGFRONT
350
580
  3
PUCSORGLEFT
350
57E
  3
PUCSORGRIGHT
350
57F
  3
PUCSORGTOP
350
57C
  3
PUCSORTHOREF
350
579
  3
PUCSORTHOVIEW
350
57A
  3
STYLESHEET
350
56F
  3
TSTACKALIGN
350
56C
  3
TSTACKSIZE
350
56D
  3
UCSBASE
350
584
  3
UCSORGBACK
350
58A
  3
UCSORGBOTTOM
350
586
  3
UCSORGFRONT
350
589
  3
UCSORGLEFT
350
587
  3
UCSORGRIGHT
350
588
  3
UCSORGTOP
350
585
  3
UCSORTHOREF
350
582
  3
UCSORTHOVIEW
350
583
  3
VERSIONGUID
350
577
  0
DICTIONARY
  5
58C
102
{ACAD_REACTORS
330
C
102
}
330
C
100
AcDbDictionary
  3
CANNOSCALE
350
595
  3
CMLEADERSTYLE
350
58E
  3
CTABLESTYLE
350
58D
  3
DIMASSOC
350
591
  3
HIDETEXT
350
592
  3
MSLTSCALE
350
596
  0
XRECORD
  5
594
102
{ACAD_REACTORS
330
593
102
}
330
593
100
AcDbXrecord
102
VTR_0.000_0.000_1.000_1.000_VISUALSTYLE
340
2F
102
VTR_0.000_0.000_1.000_1.000_GRIDDISPLAY
 70
     3
102
VTR_0.000_0.000_1.000_1.000_GRIDMAJOR
 70
     5
102
VTR_0.000_0.000_1.000_1.000_DEFAULTLIGHTING
280
     1
102
VTR_0.000_0.000_1.000_1.000_DEFAULTLIGHTINGTYPE
 70
     1
102
VTR_0.000_0.000_1.000_1.000_BRIGHTNESS
141
0.0
102
VTR_0.000_0.000_1.000_1.000_CONTRAST
142
0.0
  0
MATERIAL
  5
369
102
{ACAD_REACTORS
330
43
102
}
102
{ACAD_XDICTIONARY
360
59F
102
}
330
43
100
AcDbMaterial
  1
00_NEGRO_SATINADO
  0
MATERIAL
  5
45
102
{ACAD_REACTORS
330
43
102
}
102
{ACAD_XDICTIONARY
360
599
102
}
330
43
100
AcDbMaterial
  1
BYBLOCK
  0
MATERIAL
  5
44
102
{ACAD_REACTORS
330
43
102
}
102
{ACAD_XDICTIONARY
360
597
102
}
330
43
100
AcDbMaterial
  1
BYLAYER
  0
MATERIAL
  5
46
102
{ACAD_REACTORS
330
43
102
}
102
{ACAD_XDICTIONARY
360
59B
102
}
330
43
100
AcDbMaterial
  1
GLOBAL
  0
MATERIAL
  5
74
102
{ACAD_REACTORS
330
43
102
}
102
{ACAD_XDICTIONARY
360
59D
102
}
330
43
100
AcDbMaterial
  1
_COLOR_M03_
  0
ACAD_PROXY_OBJECT
  5
6C
102
{ACAD_REACTORS
330
6B
102
}
330
6B
100
AcDbProxyObject
 90
      499
 91
      505
 93
      610
310
40901902A4063FBFFFFFE056BD1B81E855B9FC0AD7A3703D0AD73F4214DD185B99185C9900AD7A3703D0AC73F90141901A02B5E8DC0F42B1CFC02B5E8DC0F42B1CFE5764000000000000300FC0
340
14
340
0
340
11
340
0
 94
        0
1001
ACAD_MLEADERVER
1070
     2
  0
MLINESTYLE
  5
18
102
{ACAD_REACTORS
330
17
102
}
330
17
100
AcDbMlineStyle
  2
Standard
 70
     0
  3

 62
   256
 51
90.0
 52
90.0
 71
     2
 49
0.5
 62
   256
  6
BYLAYER
 49
-0.5
 62
   256
  6
BYLAYER
  0
ACAD_PROXY_OBJECT
  5
48
102
{ACAD_REACTORS
330
47
102
}
330
47
100
AcDbProxyObject
 90
      499
 91
      503
 93
       41
310
903313A31580
  0
ACAD_PROXY_OBJECT
  5
49
102
{ACAD_REACTORS
330
47
102
}
330
47
100
AcDbProxyObject
 90
      499
 91
      503
 93
      105
310
903313A324000000000000004000
  0
ACAD_PROXY_OBJECT
  5
4A
102
{ACAD_REACTORS
330
47
102
}
330
47
100
AcDbProxyObject
 90
      499
 91
      503
 93
      105
310
903313A344000000000000104000
  0
ACAD_PROXY_OBJECT
  5
4B
102
{ACAD_REACTORS
330
47
102
}
330
47
100
AcDbProxyObject
 90
      499
 91
      503
 93
      105
310
903313A354000000000000144000
  0
ACAD_PROXY_OBJECT
  5
4C
102
{ACAD_REACTORS
330
47
102
}
330
47
100
AcDbProxyObject
 90
      499
 91
      503
 93
      105
310
903313A384000000000000204000
  0
ACAD_PROXY_OBJECT
  5
4D
102
{ACAD_REACTORS
330
47
102
}
330
47
100
AcDbProxyObject
 90
      499
 91
      503
 93
      113
310
904313A31304000000000000244000
  0
ACAD_PROXY_OBJECT
  5
4E
102
{ACAD_REACTORS
330
47
102
}
330
47
100
AcDbProxyObject
 90
      499
 91
      503
 93
      113
310
904313A31364000000000000304000
  0
ACAD_PROXY_OBJECT
  5
4F
102
{ACAD_REACTORS
330
47
102
}
330
47
100
AcDbProxyObject
 90
      499
 91
      503
 93
      113
310
904313A32304000000000000344000
  0
ACAD_PROXY_OBJECT
  5
50
102
{ACAD_REACTORS
330
47
102
}
330
47
100
AcDbProxyObject
 90
      499
 91
      503
 93
      113
310
904313A333040000000000003E4000
  0
ACAD_PROXY_OBJECT
  5
51
102
{ACAD_REACTORS
330
47
102
}
330
47
100
AcDbProxyObject
 90
      499
 91
      503
 93
      113
310
904313A34304000000000000444000
  0
ACAD_PROXY_OBJECT
  5
52
102
{ACAD_REACTORS
330
47
102
}
330
47
100
AcDbProxyObject
 90
      499
 91
      503
 93
      113
310
904313A35304000000000000494000
  0
ACAD_PROXY_OBJECT
  5
53
102
{ACAD_REACTORS
330
47
102
}
330
47
100
AcDbProxyObject
 90
      499
 91
      503
 93
      121
310
905313A3130304000000000000594000
  0
ACAD_PROXY_OBJECT
  5
54
102
{ACAD_REACTORS
330
47
102
}
330
47
100
AcDbProxyObject
 90
      499
 91
      503
 93
      105
310
903323A310000000000000010100
  0
ACAD_PROXY_OBJECT
  5
55
102
{ACAD_REACTORS
330
47
102
}
330
47
100
AcDbProxyObject
 90
      499
 91
      503
 93
      105
310
903343A310000000000000410100
  0
ACAD_PROXY_OBJECT
  5
56
102
{ACAD_REACTORS
330
47
102
}
330
47
100
AcDbProxyObject
 90
      499
 91
      503
 93
      105
310
903383A310000000000000810100
  0
ACAD_PROXY_OBJECT
  5
57
102
{ACAD_REACTORS
330
47
102
}
330
47
100
AcDbProxyObject
 90
      499
 91
      503
 93
      113
310
90431303A310000000000000910100
  0
ACAD_PROXY_OBJECT
  5
58
102
{ACAD_REACTORS
330
47
102
}
330
47
100
AcDbProxyObject
 90
      499
 91
      503
 93
      121
310
9053130303A310000000000001650100
  0
ACAD_PROXY_OBJECT
  5
59
102
{ACAD_REACTORS
330
47
102
}
330
47
100
AcDbProxyObject
 90
      499
 91
      503
 93
      257
310
90E312F31323822203D2031272D3022000000000000200FC000000000000284000
  0
ACAD_PROXY_OBJECT
  5
5A
102
{ACAD_REACTORS
330
47
102
}
330
47
100
AcDbProxyObject
 90
      499
 91
      503
 93
      249
310
90D312F363422203D2031272D3022000000000000240FC000000000000284000
  0
ACAD_PROXY_OBJECT
  5
5B
102
{ACAD_REACTORS
330
47
102
}
330
47
100
AcDbProxyObject
 90
      499
 91
      503
 93
      249
310
90D312F333222203D2031272D3022000000000000280FC000000000000284000
  0
ACAD_PROXY_OBJECT
  5
5C
102
{ACAD_REACTORS
330
47
102
}
330
47
100
AcDbProxyObject
 90
      499
 91
      503
 93
      249
310
90D312F313622203D2031272D30220000000000002C0FC000000000000284000
  0
ACAD_PROXY_OBJECT
  5
5D
102
{ACAD_REACTORS
330
47
102
}
330
47
100
AcDbProxyObject
 90
      499
 91
      503
 93
      249
310
90D332F333222203D2031272D30220000000000002E0FC000000000000284000
  0
ACAD_PROXY_OBJECT
  5
5E
102
{ACAD_REACTORS
330
47
102
}
330
47
100
AcDbProxyObject
 90
      499
 91
      503
 93
      241
310
90C312F3822203D2031272D3022000000000000300FC000000000000284000
  0
ACAD_PROXY_OBJECT
  5
5F
102
{ACAD_REACTORS
330
47
102
}
330
47
100
AcDbProxyObject
 90
      499
 91
      503
 93
      249
310
90D332F313622203D2031272D3022000000000000320FC000000000000284000
  0
ACAD_PROXY_OBJECT
  5
60
102
{ACAD_REACTORS
330
47
102
}
330
47
100
AcDbProxyObject
 90
      499
 91
      503
 93
      241
310
90C312F3422203D2031272D3022000000000000340FC000000000000284000
  0
ACAD_PROXY_OBJECT
  5
61
102
{ACAD_REACTORS
330
47
102
}
330
47
100
AcDbProxyObject
 90
      499
 91
      503
 93
      241
310
90C332F3822203D2031272D3022000000000000360FC000000000000284000
  0
ACAD_PROXY_OBJECT
  5
62
102
{ACAD_REACTORS
330
47
102
}
330
47
100
AcDbProxyObject
 90
      499
 91
      503
 93
      241
310
90C312F3222203D2031272D3022000000000000380FC000000000000284000
  0
ACAD_PROXY_OBJECT
  5
63
102
{ACAD_REACTORS
330
47
102
}
330
47
100
AcDbProxyObject
 90
      499
 91
      503
 93
      241
310
90C332F3422203D2031272D30220000000000003A0FC000000000000284000
  0
ACAD_PROXY_OBJECT
  5
64
102
{ACAD_REACTORS
330
47
102
}
330
47
100
AcDbProxyObject
 90
      499
 91
      503
 93
      161
310
90A3122203D2031272D30224000000000000284000
  0
ACAD_PROXY_OBJECT
  5
65
102
{ACAD_REACTORS
330
47
102
}
330
47
100
AcDbProxyObject
 90
      499
 91
      503
 93
      257
310
90E312D312F3222203D2031272D30220000000000003E0FC000000000000284000
  0
ACAD_PROXY_OBJECT
  5
66
102
{ACAD_REACTORS
330
47
102
}
330
47
100
AcDbProxyObject
 90
      499
 91
      503
 93
      225
310
90A3322203D2031272D302200000000000002100000000000000284000
  0
ACAD_PROXY_OBJECT
  5
67
102
{ACAD_REACTORS
330
47
102
}
330
47
100
AcDbProxyObject
 90
      499
 91
      503
 93
      225
310
90A3622203D2031272D302200000000000006100000000000000284000
  0
ACAD_PROXY_OBJECT
  5
68
102
{ACAD_REACTORS
330
47
102
}
330
47
100
AcDbProxyObject
 90
      499
 91
      503
 93
      249
310
90D31272D3022203D2031272D30220000000000000A100000000000000284000
  0
ACAD_PROXY_OBJECT
  5
2F
102
{ACAD_REACTORS
330
2A
102
}
330
2A
100
AcDbProxyObject
 90
      499
 91
      501
 93
      436
310
42CC9915DA5C99599C985B595049028333333333333E33F0000000000000F90107901411070040501600405405064090741402480A0340
1001
ACAD
1000
AcDbSavedByObjectVersion
1070
     0
  0
ACAD_PROXY_OBJECT
  5
32
102
{ACAD_REACTORS
330
2A
102
}
330
2A
100
AcDbProxyObject
 90
      499
 91
      501
 93
      388
310
4150985CDA58D07406404333333333333E33F0000000000000F90107A41107004050150841D405064090741402480A0350
1001
ACAD
1000
AcDbSavedByObjectVersion
1070
     0
  0
ACAD_PROXY_OBJECT
  5
36
102
{ACAD_REACTORS
330
2A
102
}
330
2A
100
AcDbProxyObject
 90
      499
 91
      501
 93
      428
310
42109C9A59DA1D195B90C409028333333333333E33F0000000000000F9010790141107004050150841D405064090741402480A029950
1001
ACAD
1000
AcDbSavedByObjectVersion
1070
     0
  0
ACAD_PROXY_OBJECT
  5
3A
102
{ACAD_REACTORS
330
2A
102
}
330
2A
100
AcDbProxyObject
 90
      499
 91
      501
 93
      452
310
42D0DBDB1BDC90DA185B99D95104090240C333333333333E33F0000000000000F90108901411070040501508421405064090741402480A0350
1001
ACAD
1000
AcDbSavedByObjectVersion
1070
     0
  0
ACAD_PROXY_OBJECT
  5
34
102
{ACAD_REACTORS
330
2A
102
}
330
2A
100
AcDbProxyObject
 90
      499
 91
      501
 93
      500
310
4290DBDB98D95C1D1D585B10940D028333333333333E33F0000000000000F90107902409070040501000000000018199010841D405064090740C02480A0340
1001
ACAD
1000
AcDbSavedByObjectVersion
1070
     0
  0
ACAD_PROXY_OBJECT
  5
35
102
{ACAD_REACTORS
330
2A
102
}
330
2A
100
AcDbProxyObject
 90
      499
 91
      501
 93
      412
310
40D11A5B50B409028333333333333E33F0000000000000F9010790141107004050150841D405064090741402480A02677FFFFFD0
1001
ACAD
1000
AcDbSavedByObjectVersion
1070
     0
  0
ACAD_PROXY_OBJECT
  5
3D
102
{ACAD_REACTORS
330
2A
102
}
330
2A
100
AcDbProxyObject
 90
      499
 91
      501
 93
      452
310
43115919D950DBDB1BDC93D999916409028333333333333E33F0000000000000F9010790141107004050150841D405064090741402480A0350
1001
ACAD
1000
AcDbSavedByObjectVersion
1070
     0
  0
ACAD_PROXY_OBJECT
  5
39
102
{ACAD_REACTORS
330
2A
102
}
330
2A
100
AcDbProxyObject
 90
      499
 91
      501
 93
      444
310
42D19858D95C185D1D195C9B90F409028333333333333E33F0000000000000F9010790141107004050150841D405064090741402480A0350
1001
ACAD
1000
AcDbSavedByObjectVersion
1070
     0
  0
ACAD_PROXY_OBJECT
  5
2B
102
{ACAD_REACTORS
330
2A
102
}
330
2A
100
AcDbProxyObject
 90
      499
 91
      501
 93
      380
310
41119B185D240901404333333333333E33F0000000000000F9010740A907004050150841D405064090741402480A1B50
1001
ACAD
1000
AcDbSavedByObjectVersion
1070
     0
  0
ACAD_PROXY_OBJECT
  5
2C
102
{ACAD_REACTORS
330
2A
102
}
330
2A
100
AcDbProxyObject
 90
      499
 91
      501
 93
      468
310
43519B185D15DA5D1A115919D95CD0140901404333333333333E33F0000000000000F90107409019070040501600405405064090741402480A1B50
1001
ACAD
1000
AcDbSavedByObjectVersion
1070
     0
  0
ACAD_PROXY_OBJECT
  5
2D
102
{ACAD_REACTORS
330
2A
102
}
330
2A
100
AcDbProxyObject
 90
      499
 91
      501
 93
      404
310
41D1DBDD5C985D5910240902404333333333333E33F0000000000000F9010740A9070040501641D405064090741402480A1B50
1001
ACAD
1000
AcDbSavedByObjectVersion
1070
     0
  0
ACAD_PROXY_OBJECT
  5
2E
102
{ACAD_REACTORS
330
2A
102
}
330
2A
100
AcDbProxyObject
 90
      499
 91
      501
 93
      492
310
4411DBDD5C985D5915DA5D1A115919D95CD0340902404333333333333E33F0000000000000F90107409019070040501600405405064090741402480A1B50
1001
ACAD
1000
AcDbSavedByObjectVersion
1070
     0
  0
ACAD_PROXY_OBJECT
  5
31
102
{ACAD_REACTORS
330
2A
102
}
330
2A
100
AcDbProxyObject
 90
      499
 91
      501
 93
      476
310
41921A5919195B90640502408333333333333E33F0000000000000F901079024090700405020000000000001110200405405064090740C02480A0340
1001
ACAD
1000
AcDbSavedByObjectVersion
1070
     0
  0
ACAD_PROXY_OBJECT
  5
3B
102
{ACAD_REACTORS
330
2A
102
}
330
2A
100
AcDbProxyObject
 90
      499
 91
      501
 93
      428
310
42529A5D1D195C93D999914409028333333333333E33F0000000000000F9010790141107004050150A41D405064090741402480A0350
1001
ACAD
1000
AcDbSavedByObjectVersion
1070
     0
  0
ACAD_PROXY_OBJECT
  5
38
102
{ACAD_REACTORS
330
2A
102
}
330
2A
100
AcDbProxyObject
 90
      499
 91
      501
 93
      444
310
42D31A5B995C185D1D195C9B90E409028333333333333E33F0000000000000F9010790141107004050750841D405064090741402483A0350
1001
ACAD
1000
AcDbSavedByObjectVersion
1070
     0
  0
ACAD_PROXY_OBJECT
  5
3C
102
{ACAD_REACTORS
330
2A
102
}
330
2A
100
AcDbProxyObject
 90
      499
 91
      501
 93
      444
310
42D3DD995C9A185B99D3D999915409028333333333333E33F0000000000000F9010790141107004050150941D405064090741402480A0350
1001
ACAD
1000
AcDbSavedByObjectVersion
1070
     0
  0
ACAD_PROXY_OBJECT
  5
33
102
{ACAD_REACTORS
330
2A
102
}
330
2A
100
AcDbProxyObject
 90
      499
 91
      501
 93
      428
310
425499585B1A5CDD1A58D08409038333333333333E33F0000000000000F9010740A907004050150800405405064090740C02480A1B40
1001
ACAD
1000
AcDbSavedByObjectVersion
1070
     0
  0
ACAD_PROXY_OBJECT
  5
42
102
{ACAD_REACTORS
330
2A
102
}
330
2A
100
AcDbProxyObject
 90
      499
 91
      501
 93
      420
310
4194DA1859195911B40902404333333333333E33F0000000000000F9010740A41107004050150800405405064090840C02480A0B40
1001
ACAD
1000
AcDbSavedByObjectVersion
1070
     0
  0
ACAD_PROXY_OBJECT
  5
41
102
{ACAD_REACTORS
330
2A
102
}
330
2A
100
AcDbProxyObject
 90
      499
 91
      501
 93
      516
310
4454DA18591959081DDA5D1A08195919D95CD1A40902404333333333333E33F0000000000000F901074090142907004050250800405405064090740C02480A0B40
1001
ACAD
1000
AcDbSavedByObjectVersion
1070
     0
  0
ACAD_PROXY_OBJECT
  5
3E
102
{ACAD_REACTORS
330
2A
102
}
330
2A
100
AcDbProxyObject
 90
      499
 91
      501
 93
      532
310
4394DA1859195CC81BD98811DC985E5174090240C333333333333E33F0000000000000F901079024090741D01000000000000111010841D405064090740C02480A0340
1001
ACAD
1000
AcDbSavedByObjectVersion
1070
     0
  0
ACAD_PROXY_OBJECT
  5
3F
102
{ACAD_REACTORS
330
2A
102
}
330
2A
100
AcDbProxyObject
 90
      499
 91
      501
 93
      476
310
41D4DAD95D18DA1E51840502408333333333333E33F0000000000000F901079024090741D01000000000000111010B41D405064090741802480A0340
1001
ACAD
1000
AcDbSavedByObjectVersion
1070
     0
  0
ACAD_PROXY_OBJECT
  5
37
102
{ACAD_REACTORS
330
2A
102
}
330
2A
100
AcDbProxyObject
 90
      499
 91
      501
 93
      412
310
41D51A1A58DAD95B90D409028333333333333E33F0000000000000F9010790141107004050150C41D405064090741402480A0350
1001
ACAD
1000
AcDbSavedByObjectVersion
1070
     0
  0
ACAD_PROXY_OBJECT
  5
30
102
{ACAD_REACTORS
330
2A
102
}
330
2A
100
AcDbProxyObject
 90
      499
 91
      501
 93
      420
310
4255DA5C99599C985B595059028333333333333E33F0000000000000F90107901411070040501600405405064090740C02480A0340
1001
ACAD
1000
AcDbSavedByObjectVersion
1070
     0
  0
ACAD_PROXY_OBJECT
  5
40
102
{ACAD_REACTORS
330
2A
102
}
330
2A
100
AcDbProxyObject
 90
      499
 91
      501
 93
      404
310
41560B54985E51940902404000000000000E03F0000000000000F9010740501907004050150841D405064090740C02480A1B40
1001
ACAD
1000
AcDbSavedByObjectVersion
1070
     0
  0
XRECORD
  5
575
102
{ACAD_REACTORS
330
56B
102
}
330
56B
100
AcDbXrecord
340
0
  0
XRECORD
  5
574
102
{ACAD_REACTORS
330
56B
102
}
330
56B
100
AcDbXrecord
 90
        0
  0
XRECORD
  5
58B
102
{ACAD_REACTORS
330
56B
102
}
330
56B
100
AcDbXrecord
1000
DSTYLE
1002
{
1070
   171
 70
     2
1070
   143
 40
25.4
1070
   274
 70
     2
1070
    41
 40
0.18
1070
   141
 40
0.09
1070
   271
 70
     4
1070
    43
 40
0.38
1070
   278
 70
    46
1070
    44
 40
0.18
1070
    42
 40
0.0625
1070
   147
 40
0.09
1070
    77
 70
     0
1070
   272
 70
     4
1070
    73
 70
     1
1070
   172
 70
     0
1070
    74
 70
     1
1070
   283
 70
     1
1070
   340
340
11
1070
   140
 40
0.18
1070
   284
 70
     0
1070
    78
 70
     0
1002
}
  0
XRECORD
  5
576
102
{ACAD_REACTORS
330
56B
102
}
330
56B
100
AcDbXrecord
  1
{26ba8f35-6035-f24b-8683-c62877ef7417}
  0
XRECORD
  5
56E
102
{ACAD_REACTORS
330
56B
102
}
330
56B
100
AcDbXrecord
  1

  0
XRECORD
  5
573
102
{ACAD_REACTORS
330
56B
102
}
330
56B
100
AcDbXrecord
 90
        5
  0
XRECORD
  5
570
102
{ACAD_REACTORS
330
56B
102
}
330
56B
100
AcDbXrecord
340
1A
  0
XRECORD
  5
572
102
{ACAD_REACTORS
330
56B
102
}
330
56B
100
AcDbXrecord
 90
    10781
  0
XRECORD
  5
571
102
{ACAD_REACTORS
330
56B
102
}
330
56B
100
AcDbXrecord
340
19
  0
XRECORD
  5
578
102
{ACAD_REACTORS
330
56B
102
}
330
56B
100
AcDbXrecord
 40
0.0
  0
XRECORD
  5
57B
102
{ACAD_REACTORS
330
56B
102
}
330
56B
100
AcDbXrecord
340
0
  0
XRECORD
  5
581
102
{ACAD_REACTORS
330
56B
102
}
330
56B
100
AcDbXrecord
 10
0.0
 20
0.0
 30
0.0
  0
XRECORD
  5
57D
102
{ACAD_REACTORS
330
56B
102
}
330
56B
100
AcDbXrecord
 10
0.0
 20
0.0
 30
0.0
  0
XRECORD
  5
580
102
{ACAD_REACTORS
330
56B
102
}
330
56B
100
AcDbXrecord
 10
0.0
 20
0.0
 30
0.0
  0
XRECORD
  5
57E
102
{ACAD_REACTORS
330
56B
102
}
330
56B
100
AcDbXrecord
 10
0.0
 20
0.0
 30
0.0
  0
XRECORD
  5
57F
102
{ACAD_REACTORS
330
56B
102
}
330
56B
100
AcDbXrecord
 10
0.0
 20
0.0
 30
0.0
  0
XRECORD
  5
57C
102
{ACAD_REACTORS
330
56B
102
}
330
56B
100
AcDbXrecord
 10
0.0
 20
0.0
 30
0.0
  0
XRECORD
  5
579
102
{ACAD_REACTORS
330
56B
102
}
330
56B
100
AcDbXrecord
340
0
  0
XRECORD
  5
57A
102
{ACAD_REACTORS
330
56B
102
}
330
56B
100
AcDbXrecord
 70
     0
  0
XRECORD
  5
56F
102
{ACAD_REACTORS
330
56B
102
}
330
56B
100
AcDbXrecord
  1

  0
XRECORD
  5
56C
102
{ACAD_REACTORS
330
56B
102
}
330
56B
100
AcDbXrecord
 90
        1
  0
XRECORD
  5
56D
102
{ACAD_REACTORS
330
56B
102
}
330
56B
100
AcDbXrecord
 90
       70
  0
XRECORD
  5
584
102
{ACAD_REACTORS
330
56B
102
}
330
56B
100
AcDbXrecord
340
0
  0
XRECORD
  5
58A
102
{ACAD_REACTORS
330
56B
102
}
330
56B
100
AcDbXrecord
 10
0.0
 20
0.0
 30
0.0
  0
XRECORD
  5
586
102
{ACAD_REACTORS
330
56B
102
}
330
56B
100
AcDbXrecord
 10
0.0
 20
0.0
 30
0.0
  0
XRECORD
  5
589
102
{ACAD_REACTORS
330
56B
102
}
330
56B
100
AcDbXrecord
 10
0.0
 20
0.0
 30
0.0
  0
XRECORD
  5
587
102
{ACAD_REACTORS
330
56B
102
}
330
56B
100
AcDbXrecord
 10
0.0
 20
0.0
 30
0.0
  0
XRECORD
  5
588
102
{ACAD_REACTORS
330
56B
102
}
330
56B
100
AcDbXrecord
 10
0.0
 20
0.0
 30
0.0
  0
XRECORD
  5
585
102
{ACAD_REACTORS
330
56B
102
}
330
56B
100
AcDbXrecord
 10
0.0
 20
0.0
 30
0.0
  0
XRECORD
  5
582
102
{ACAD_REACTORS
330
56B
102
}
330
56B
100
AcDbXrecord
340
0
  0
XRECORD
  5
583
102
{ACAD_REACTORS
330
56B
102
}
330
56B
100
AcDbXrecord
 70
     0
  0
XRECORD
  5
577
102
{ACAD_REACTORS
330
56B
102
}
330
56B
100
AcDbXrecord
  1
{FAEB1C32-E019-11D5-929B-00C0DF256EC4}
  0
DICTIONARYVAR
  5
595
102
{ACAD_REACTORS
330
58C
102
}
330
58C
100
DictionaryVariables
280
     0
  1
1:1
  0
DICTIONARYVAR
  5
58E
102
{ACAD_REACTORS
330
58C
102
}
330
58C
100
DictionaryVariables
280
     0
  1
Standard
  0
DICTIONARYVAR
  5
58D
102
{ACAD_REACTORS
330
58C
102
}
330
58C
100
DictionaryVariables
280
     0
  1
Standard
  0
DICTIONARYVAR
  5
591
102
{ACAD_REACTORS
330
58C
102
}
330
58C
100
DictionaryVariables
280
     0
  1
2
  0
DICTIONARYVAR
  5
592
102
{ACAD_REACTORS
330
58C
102
}
330
58C
100
DictionaryVariables
280
     0
  1
1
  0
DICTIONARYVAR
  5
596
102
{ACAD_REACTORS
330
58C
102
}
330
58C
100
DictionaryVariables
280
     0
  1
1
  0
DICTIONARY
  5
59F
330
369
100
AcDbDictionary
280
     1
  3
ACAD_XREC_ROUNDTRIP
360
5A0
  0
DICTIONARY
  5
599
330
45
100
AcDbDictionary
280
     1
  3
ACAD_XREC_ROUNDTRIP
360
59A
  0
DICTIONARY
  5
597
330
44
100
AcDbDictionary
280
     1
  3
ACAD_XREC_ROUNDTRIP
360
598
  0
DICTIONARY
  5
59B
330
46
100
AcDbDictionary
280
     1
  3
ACAD_XREC_ROUNDTRIP
360
59C
  0
DICTIONARY
  5
59D
330
74
100
AcDbDictionary
280
     1
  3
ACAD_XREC_ROUNDTRIP
360
59E
  0
XRECORD
  5
5A0
102
{ACAD_REACTORS
330
59F
102
}
330
59F
100
AcDbXrecord
102
MATERIAL
148
0.0
149
0.0
149
0.0
 93
        0
 94
        0
282
     0
 72
     1
 77
     1
171
     1
175
     1
179
     1
273
     0
  0
XRECORD
  5
59A
102
{ACAD_REACTORS
330
599
102
}
330
599
100
AcDbXrecord
102
MATERIAL
148
0.0
149
0.0
149
0.0
 93
        0
 94
      127
282
     0
 72
     1
 77
     1
171
     1
175
     1
179
     1
273
     0
  0
XRECORD
  5
598
102
{ACAD_REACTORS
330
597
102
}
330
597
100
AcDbXrecord
102
MATERIAL
148
0.0
149
0.0
149
0.0
 93
        0
 94
      127
282
     0
 72
     1
 77
     1
171
     1
175
     1
179
     1
273
     0
  0
XRECORD
  5
59C
102
{ACAD_REACTORS
330
59B
102
}
330
59B
100
AcDbXrecord
102
MATERIAL
148
0.0
149
0.0
149
0.0
 93
        0
 94
      127
282
     0
 72
     1
 77
     1
171
     1
175
     1
179
     1
273
     0
  0
XRECORD
  5
59E
102
{ACAD_REACTORS
330
59D
102
}
330
59D
100
AcDbXrecord
102
MATERIAL
148
0.0
149
0.0
149
0.0
 93
        0
 94
        0
282
     0
 72
     1
 77
     1
171
     1
175
     1
179
     1
273
     0
  0
ENDSEC
  0
EOF
