  0
SECTION
  2
HEADER
  9
$ACADVER
  1
AC1014
  9
$ACADMAINTVER
 70
     9
  9
$DWGCODEPAGE
  3
MAC-ROMAN
  9
$INSBASE
 10
0.0
 20
0.0
 30
0.0
  9
$EXTMIN
 10
1.000000000000000E+20
 20
1.000000000000000E+20
 30
1.000000000000000E+20
  9
$EXTMAX
 10
-1.000000000000000E+20
 20
-1.000000000000000E+20
 30
-1.000000000000000E+20
  9
$LIMMIN
 10
0.0
 20
0.0
  9
$LIMMAX
 10
12.0
 20
9.0
  9
$ORTHOMODE
 70
     0
  9
$REGENMODE
 70
     1
  9
$FILLMODE
 70
     1
  9
$QTEXTMODE
 70
     0
  9
$MIRRTEXT
 70
     1
  9
$DRAGMODE
 70
     2
  9
$LTSCALE
 40
2.54
  9
$OSMODE
 70
    37
  9
$ATTMODE
 70
     1
  9
$TEXTSIZE
 40
0.2
  9
$TRACEWID
 40
0.05
  9
$TEXTSTYLE
  7
STANDARD
  9
$CLAYER
  8
0
  9
$CELTYPE
  6
BYLAYER
  9
$CECOLOR
 62
   256
  9
$CELTSCALE
 40
1.0
  9
$DELOBJ
 70
     1
  9
$DISPSILH
 70
     0
  9
$DIMSCALE
 40
1.0
  9
$DIMASZ
 40
0.18
  9
$DIMEXO
 40
0.0625
  9
$DIMDLI
 40
0.38
  9
$DIMRND
 40
0.0
  9
$DIMDLE
 40
0.0
  9
$DIMEXE
 40
0.18
  9
$DIMTP
 40
0.0
  9
$DIMTM
 40
0.0
  9
$DIMTXT
 40
0.18
  9
$DIMCEN
 40
0.09
  9
$DIMTSZ
 40
0.0
  9
$DIMTOL
 70
     0
  9
$DIMLIM
 70
     0
  9
$DIMTIH
 70
     1
  9
$DIMTOH
 70
     1
  9
$DIMSE1
 70
     0
  9
$DIMSE2
 70
     0
  9
$DIMTAD
 70
     0
  9
$DIMZIN
 70
     0
  9
$DIMBLK
  1

  9
$DIMASO
 70
     1
  9
$DIMSHO
 70
     1
  9
$DIMPOST
  1

  9
$DIMAPOST
  1

  9
$DIMALT
 70
     0
  9
$DIMALTD
 70
     2
  9
$DIMALTF
 40
25.4
  9
$DIMLFAC
 40
1.0
  9
$DIMTOFL
 70
     0
  9
$DIMTVP
 40
0.0
  9
$DIMTIX
 70
     0
  9
$DIMSOXD
 70
     0
  9
$DIMSAH
 70
     0
  9
$DIMBLK1
  1

  9
$DIMBLK2
  1

  9
$DIMSTYLE
  2
STANDARD
  9
$DIMCLRD
 70
     0
  9
$DIMCLRE
 70
     0
  9
$DIMCLRT
 70
     0
  9
$DIMTFAC
 40
1.0
  9
$DIMGAP
 40
0.09
  9
$DIMJUST
 70
     0
  9
$DIMSD1
 70
     0
  9
$DIMSD2
 70
     0
  9
$DIMTOLJ
 70
     1
  9
$DIMTZIN
 70
     0
  9
$DIMALTZ
 70
     0
  9
$DIMALTTZ
 70
     0
  9
$DIMFIT
 70
     3
  9
$DIMUPT
 70
     0
  9
$DIMUNIT
 70
     2
  9
$DIMDEC
 70
     4
  9
$DIMTDEC
 70
     4
  9
$DIMALTU
 70
     2
  9
$DIMALTTD
 70
     2
  9
$DIMTXSTY
  7
STANDARD
  9
$DIMAUNIT
 70
     0
  9
$LUNITS
 70
     2
  9
$LUPREC
 70
     4
  9
$SKETCHINC
 40
0.1
  9
$FILLETRAD
 40
0.5
  9
$AUNITS
 70
     0
  9
$AUPREC
 70
     0
  9
$MENU
  1
.
  9
$ELEVATION
 40
0.0
  9
$PELEVATION
 40
0.0
  9
$THICKNESS
 40
0.0
  9
$LIMCHECK
 70
     0
  9
$CHAMFERA
 40
0.0
  9
$CHAMFERB
 40
0.0
  9
$CHAMFERC
 40
0.0
  9
$CHAMFERD
 40
0.0
  9
$SKPOLY
 70
     0
  9
$TDCREATE
 40
2460073.572973021
  9
$TDUPDATE
 40
2460073.572973414
  9
$TDINDWG
 40
0.0000000116
  9
$TDUSRTIMER
 40
0.0000000116
  9
$USRTIMER
 70
     1
  9
$ANGBASE
 50
0.0
  9
$ANGDIR
 70
     0
  9
$PDMODE
 70
     0
  9
$PDSIZE
 40
0.0
  9
$PLINEWID
 40
0.0
  9
$COORDS
 70
     1
  9
$SPLFRAME
 70
     0
  9
$SPLINETYPE
 70
     6
  9
$SPLINESEGS
 70
     8
  9
$ATTDIA
 70
     0
  9
$ATTREQ
 70
     1
  9
$HANDLING
 70
     1
  9
$HANDSEED
  5
281
  9
$SURFTAB1
 70
     6
  9
$SURFTAB2
 70
     6
  9
$SURFTYPE
 70
     6
  9
$SURFU
 70
     6
  9
$SURFV
 70
     6
  9
$UCSNAME
  2

  9
$UCSORG
 10
0.0
 20
0.0
 30
0.0
  9
$UCSXDIR
 10
1.0
 20
0.0
 30
0.0
  9
$UCSYDIR
 10
0.0
 20
1.0
 30
0.0
  9
$PUCSNAME
  2

  9
$PUCSORG
 10
0.0
 20
0.0
 30
0.0
  9
$PUCSXDIR
 10
1.0
 20
0.0
 30
0.0
  9
$PUCSYDIR
 10
0.0
 20
1.0
 30
0.0
  9
$USERI1
 70
     0
  9
$USERI2
 70
     0
  9
$USERI3
 70
     0
  9
$USERI4
 70
     0
  9
$USERI5
 70
     0
  9
$USERR1
 40
0.0
  9
$USERR2
 40
0.0
  9
$USERR3
 40
0.0
  9
$USERR4
 40
0.0
  9
$USERR5
 40
0.0
  9
$WORLDVIEW
 70
     1
  9
$SHADEDGE
 70
     3
  9
$SHADEDIF
 70
    70
  9
$TILEMODE
 70
     1
  9
$MAXACTVP
 70
    64
  9
$PINSBASE
 10
0.0
 20
0.0
 30
0.0
  9
$PLIMCHECK
 70
     0
  9
$PEXTMIN
 10
1.000000000000000E+20
 20
1.000000000000000E+20
 30
1.000000000000000E+20
  9
$PEXTMAX
 10
-1.000000000000000E+20
 20
-1.000000000000000E+20
 30
-1.000000000000000E+20
  9
$PLIMMIN
 10
0.0
 20
0.0
  9
$PLIMMAX
 10
12.0
 20
9.0
  9
$UNITMODE
 70
     0
  9
$VISRETAIN
 70
     1
  9
$PLINEGEN
 70
     0
  9
$PSLTSCALE
 70
     1
  9
$TREEDEPTH
 70
  3020
  9
$PICKSTYLE
 70
     1
  9
$CMLSTYLE
  2
STANDARD
  9
$CMLJUST
 70
     0
  9
$CMLSCALE
 40
1.0
  9
$PROXYGRAPHICS
 70
     1
  9
$MEASUREMENT
 70
     1
  0
ENDSEC
  0
SECTION
  2
CLASSES
  0
CLASS
  1
ACDBDICTIONARYWDFLT
  2
AcDbDictionaryWithDefault
  3
ObjectDBX Classes
 90
        0
280
     0
281
     0
  0
CLASS
  1
VISUALSTYLE
  2
AcDbVisualStyle
  3
ObjectDBX Classes
 90
     4095
280
     0
281
     0
  0
CLASS
  1
MATERIAL
  2
AcDbMaterial
  3
ObjectDBX Classes
 90
     1153
280
     0
281
     0
  0
CLASS
  1
SCALE
  2
AcDbScale
  3
ObjectDBX Classes
 90
     1153
280
     0
281
     0
  0
CLASS
  1
TABLESTYLE
  2
AcDbTableStyle
  3
ObjectDBX Classes
 90
     4095
280
     0
281
     0
  0
CLASS
  1
MLEADERSTYLE
  2
AcDbMLeaderStyle
  3
ACDB_MLEADERSTYLE_CLASS
 90
     4095
280
     0
281
     0
  0
CLASS
  1
SUN
  2
AcDbSun
  3
SCENEOE
 90
     1153
280
     0
281
     0
  0
CLASS
  1
CAMERA
  2
AcDbCamera
  3
ACCAMERA
 90
      195
280
     0
281
     1
  0
CLASS
  1
DICTIONARYVAR
  2
AcDbDictionaryVar
  3
ObjectDBX Classes
 90
        0
280
     0
281
     0
  0
CLASS
  1
XRECORD
  2
AcDbXrecord
  3
ObjectDBX Classes
 90
        0
280
     0
281
     0
  0
CLASS
  1
LWPOLYLINE
  2
AcDbPolyline
  3
ObjectDBX Classes
 90
        0
280
     0
281
     1
  0
CLASS
  1
HATCH
  2
AcDbHatch
  3
ObjectDBX Classes
 90
        0
280
     0
281
     1
  0
CLASS
  1
ACDBPLACEHOLDER
  2
AcDbPlaceHolder
  3
ObjectDBX Classes
 90
        0
280
     0
281
     0
  0
CLASS
  1
LAYOUT
  2
AcDbLayout
  3
ObjectDBX Classes
 90
        0
280
     0
281
     0
  0
ENDSEC
  0
SECTION
  2
TABLES
  0
TABLE
  2
VPORT
  5
8
102
{ACAD_XDICTIONARY
360
276
102
}
330
0
100
AcDbSymbolTable
 70
     1
  0
VPORT
  5
29
330
8
100
AcDbSymbolTableRecord
100
AcDbViewportTableRecord
  2
*ACTIVE
 70
     0
 10
0.0
 20
0.0
 11
1.0
 21
1.0
 12
0.0
 22
0.0
 13
0.0
 23
0.0
 14
0.5
 24
0.5
 15
0.5
 25
0.5
 16
0.4718729445720219
 26
-0.8237445000892393
 36
0.314294325042083
 17
52.2717086666695
 27
11.0229047693345
 37
108.8806294287393
 40
275.0436425604038
 41
1.3333
 42
50.38394550081738
 43
-510.6984241671204
 44
2026.76157583288
 50
0.0
 51
0.0000000000000045
 71
     1
 72
   100
 73
     1
 74
     3
 75
     0
 76
     0
 77
     0
 78
     0
  0
ENDTAB
  0
TABLE
  2
LTYPE
  5
5
330
0
100
AcDbSymbolTable
 70
     1
  0
LTYPE
  5
14
330
5
100
AcDbSymbolTableRecord
100
AcDbLinetypeTableRecord
  2
BYBLOCK
 70
     0
  3

 72
    65
 73
     0
 40
0.0
  0
LTYPE
  5
15
330
5
100
AcDbSymbolTableRecord
100
AcDbLinetypeTableRecord
  2
BYLAYER
 70
     0
  3

 72
    65
 73
     0
 40
0.0
  0
LTYPE
  5
16
330
5
100
AcDbSymbolTableRecord
100
AcDbLinetypeTableRecord
  2
CONTINUOUS
 70
     0
  3
Solid line
 72
    65
 73
     0
 40
0.0
  0
ENDTAB
  0
TABLE
  2
LAYER
  5
2
330
0
100
AcDbSymbolTable
 70
     2
  0
LAYER
  5
10
330
2
100
AcDbSymbolTableRecord
100
AcDbLayerTableRecord
  2
0
 70
     0
 62
    13
  6
CONTINUOUS
  0
LAYER
  5
6F
330
2
100
AcDbSymbolTableRecord
100
AcDbLayerTableRecord
  2
TEMPORARY_SYSTEM_CAMERAS_L
 70
     0
 62
     7
  6
CONTINUOUS
  0
ENDTAB
  0
TABLE
  2
STYLE
  5
3
330
0
100
AcDbSymbolTable
 70
     2
  0
STYLE
  5
11
330
3
100
AcDbSymbolTableRecord
100
AcDbTextStyleTableRecord
  2
STANDARD
 70
     0
 40
0.0
 41
1.0
 50
0.0
 71
     0
 42
0.2
  3
txt
  4

  0
STYLE
  5
71
330
3
100
AcDbSymbolTableRecord
100
AcDbTextStyleTableRecord
  2
LUCIDA_GRANDE
 70
     0
 40
0.0
 41
1.0
 50
0.0
 71
     0
 42
0.2
  3
Lucida Grande
  4

1001
ACAD
1000
Lucida Grande
1071
       34
  0
ENDTAB
  0
TABLE
  2
VIEW
  5
6
330
0
100
AcDbSymbolTable
 70
     1
  0
VIEW
  5
6E
330
6
100
AcDbSymbolTableRecord
100
AcDbViewTableRecord
  2
ESCENA1
 70
     0
 40
275.0436425604041
 10
0.0
 20
0.0
 41
366.7156886257867
 11
23.77482072262698
 21
-41.5034979990943
 31
15.83538814413649
 12
51.68508235311756
 22
12.04697322876774
 32
112.4453894572953
 42
50.38394550081738
 43
-510.6984241671207
 44
2026.761575832879
 50
0.0000000000000036
 71
     1
  0
ENDTAB
  0
TABLE
  2
UCS
  5
7
330
0
100
AcDbSymbolTable
 70
     0
  0
ENDTAB
  0
TABLE
  2
APPID
  5
9
330
0
100
AcDbSymbolTable
 70
     3
  0
APPID
  5
12
330
9
100
AcDbSymbolTableRecord
100
AcDbRegAppTableRecord
  2
ACAD
 70
     0
  0
APPID
  5
79
330
9
100
AcDbSymbolTableRecord
100
AcDbRegAppTableRecord
  2
ACAD_MATERIAL_MAPPER
 70
     0
  0
APPID
  5
280
330
9
100
AcDbSymbolTableRecord
100
AcDbRegAppTableRecord
  2
ACAD_MLEADERVER
 70
     0
  0
ENDTAB
  0
TABLE
  2
DIMSTYLE
  5
A
330
0
100
AcDbSymbolTable
 70
     2
  0
DIMSTYLE
105
27
330
A
100
AcDbSymbolTableRecord
100
AcDbDimStyleTableRecord
  2
STANDARD
 70
     0
  3

  4

  5

  6

  7

 40
1.0
 41
0.18
 42
0.0625
 43
0.38
 44
0.18
 45
0.0
 46
0.0
 47
0.0
 48
0.0
140
0.18
141
0.09
142
0.0
143
25.4
144
1.0
145
0.0
146
1.0
147
0.09
 71
     0
 72
     0
 73
     1
 74
     1
 75
     0
 76
     0
 77
     0
 78
     0
170
     0
171
     2
172
     0
173
     0
174
     0
175
     0
176
     0
177
     0
178
     0
270
     2
271
     4
272
     4
273
     2
274
     2
340
11
275
     0
280
     0
281
     0
282
     0
283
     1
284
     0
285
     0
286
     0
287
     3
288
     0
  0
DIMSTYLE
105
72
330
A
100
AcDbSymbolTableRecord
100
AcDbDimStyleTableRecord
  2
DIMENSIONS
 70
     0
  3
cm
  4

  5

  6

  7

 40
1.0
 41
1.27
 42
1.27
 43
0.38
 44
1.27
 45
0.0
 46
0.0
 47
0.0
 48
0.0
140
2.54
141
0.09
142
0.0
143
25.4
144
1.0
145
0.0
146
1.0
147
0.254
 71
     0
 72
     0
 73
     1
 74
     1
 75
     0
 76
     0
 77
     0
 78
     0
170
     0
171
     2
172
     0
173
     0
174
     0
175
     0
176
     0
177
     0
178
     0
270
     2
271
     1
272
     4
273
     2
274
     2
340
71
275
     0
280
     0
281
     0
282
     0
283
     1
284
     0
285
     0
286
     0
287
     3
288
     0
  0
ENDTAB
  0
TABLE
  2
BLOCK_RECORD
  5
1
330
0
100
AcDbSymbolTable
 70
     2
  0
BLOCK_RECORD
  5
1F
330
1
100
AcDbSymbolTableRecord
100
AcDbBlockTableRecord
  2
*MODEL_SPACE
  0
BLOCK_RECORD
  5
1B
330
1
100
AcDbSymbolTableRecord
100
AcDbBlockTableRecord
  2
*PAPER_SPACE
  0
BLOCK_RECORD
  5
73
330
1
100
AcDbSymbolTableRecord
100
AcDbBlockTableRecord
  2
GRUPO_1
  0
BLOCK_RECORD
  5
76
330
1
100
AcDbSymbolTableRecord
100
AcDbBlockTableRecord
  2
GRUPO_7
  0
ENDTAB
  0
ENDSEC
  0
SECTION
  2
BLOCKS
  0
BLOCK
  5
20
330
1F
100
AcDbEntity
  8
0
100
AcDbBlockBegin
  2
*MODEL_SPACE
 70
     0
 10
0.0
 20
0.0
 30
0.0
  3
*MODEL_SPACE
  1

  0
ENDBLK
  5
21
330
1F
100
AcDbEntity
  8
0
100
AcDbBlockEnd
  0
BLOCK
  5
1C
330
1B
100
AcDbEntity
 67
     1
  8
0
100
AcDbBlockBegin
  2
*PAPER_SPACE
 70
     0
 10
0.0
 20
0.0
 30
0.0
  3
*PAPER_SPACE
  1

  0
ENDBLK
  5
1D
330
1B
100
AcDbEntity
 67
     1
  8
0
100
AcDbBlockEnd
  0
BLOCK
  5
74
330
73
100
AcDbEntity
  8
0
100
AcDbBlockBegin
  2
GRUPO_1
 70
     0
 10
0.0
 20
0.0
 30
0.0
  3
GRUPO_1
  1

  0
POLYLINE
  5
7A
330
73
100
AcDbEntity
  8
0
 62
     0
100
AcDbPolyFaceMesh
 66
     1
 10
0.0
 20
0.0
 30
0.0
 70
    64
 71
     4
 72
     2
1001
ACAD_MATERIAL_MAPPER
1070
     1
1070
     1
1070
     1
1011
0.0000000000000001
1021
0.0
1031
0.0
1011
-2.54
1021
0.0
1031
0.0
1011
0.0000000000000001
1021
2.54
1031
0.0
1011
0.0000000000000001
1021
0.0
1031
1.0
  0
VERTEX
  5
7B
330
7A
100
AcDbEntity
  8
0
 62
     0
100
AcDbVertex
100
AcDbPolyFaceMeshVertex
 10
81.74999999999999
 20
3.5
 30
0.0
 70
   192
  0
VERTEX
  5
7C
330
7A
100
AcDbEntity
  8
0
 62
     0
100
AcDbVertex
100
AcDbPolyFaceMeshVertex
 10
-0.25
 20
0.0000000000000011
 30
0.0
 70
   192
  0
VERTEX
  5
7D
330
7A
100
AcDbEntity
  8
0
 62
     0
100
AcDbVertex
100
AcDbPolyFaceMeshVertex
 10
-0.25
 20
3.5
 30
0.0
 70
   192
  0
VERTEX
  5
7E
330
7A
100
AcDbEntity
  8
0
 62
     0
100
AcDbVertex
100
AcDbPolyFaceMeshVertex
 10
81.74999999999999
 20
0.0
 30
0.0
 70
   192
  0
VERTEX
  5
7F
330
7A
100
AcDbEntity
  8
0
 62
     0
100
AcDbFaceRecord
 10
0.0
 20
0.0
 30
0.0
 70
   128
 71
    -1
 72
     2
 73
     3
  0
VERTEX
  5
80
330
7A
100
AcDbEntity
  8
0
 62
     0
100
AcDbFaceRecord
 10
0.0
 20
0.0
 30
0.0
 70
   128
 71
    -2
 72
     1
 73
     4
  0
SEQEND
  5
81
330
7A
100
AcDbEntity
  8
0
 62
     0
  0
LINE
  5
82
330
73
100
AcDbEntity
  8
0
 62
     0
100
AcDbLine
 10
81.74999999999999
 20
0.0
 30
0.0
 11
-0.25
 21
0.0000000000000011
 31
0.0
  0
LINE
  5
83
330
73
100
AcDbEntity
  8
0
 62
     0
100
AcDbLine
 10
-0.25
 20
0.0000000000000011
 30
0.0
 11
-0.25
 21
3.5
 31
0.0
  0
LINE
  5
84
330
73
100
AcDbEntity
  8
0
 62
     0
100
AcDbLine
 10
-0.25
 20
3.5
 30
0.0
 11
81.74999999999999
 21
3.5
 31
0.0
  0
LINE
  5
85
330
73
100
AcDbEntity
  8
0
 62
     0
100
AcDbLine
 10
81.74999999999999
 20
3.5
 30
0.0
 11
81.74999999999999
 21
0.0
 31
0.0
  0
POLYLINE
  5
86
330
73
100
AcDbEntity
  8
0
 62
     0
100
AcDbPolyFaceMesh
 66
     1
 10
0.0
 20
0.0
 30
0.0
 70
    64
 71
     4
 72
     2
1001
ACAD_MATERIAL_MAPPER
1070
     1
1070
     1
1070
     1
1011
0.0
1021
0.0
1031
0.0
1011
2.54
1021
0.0
1031
0.0
1011
0.0
1021
2.54
1031
0.0
1011
0.0
1021
0.0
1031
1.0
  0
VERTEX
  5
87
330
86
100
AcDbEntity
  8
0
 62
     0
100
AcDbVertex
100
AcDbPolyFaceMeshVertex
 10
81.74999999999999
 20
0.0
 30
203.0
 70
   192
  0
VERTEX
  5
88
330
86
100
AcDbEntity
  8
0
 62
     0
100
AcDbVertex
100
AcDbPolyFaceMeshVertex
 10
-0.25
 20
3.5
 30
203.0
 70
   192
  0
VERTEX
  5
89
330
86
100
AcDbEntity
  8
0
 62
     0
100
AcDbVertex
100
AcDbPolyFaceMeshVertex
 10
-0.25
 20
0.0000000000000011
 30
203.0
 70
   192
  0
VERTEX
  5
8A
330
86
100
AcDbEntity
  8
0
 62
     0
100
AcDbVertex
100
AcDbPolyFaceMeshVertex
 10
81.74999999999999
 20
3.5
 30
203.0
 70
   192
  0
VERTEX
  5
8B
330
86
100
AcDbEntity
  8
0
 62
     0
100
AcDbFaceRecord
 10
0.0
 20
0.0
 30
0.0
 70
   128
 71
    -1
 72
     2
 73
     3
  0
VERTEX
  5
8C
330
86
100
AcDbEntity
  8
0
 62
     0
100
AcDbFaceRecord
 10
0.0
 20
0.0
 30
0.0
 70
   128
 71
    -2
 72
     1
 73
     4
  0
SEQEND
  5
8D
330
86
100
AcDbEntity
  8
0
 62
     0
  0
LINE
  5
8E
330
73
100
AcDbEntity
  8
0
 62
     0
100
AcDbLine
 10
81.74999999999999
 20
0.0
 30
203.0
 11
-0.25
 21
0.0000000000000011
 31
203.0
  0
LINE
  5
8F
330
73
100
AcDbEntity
  8
0
 62
     0
100
AcDbLine
 10
81.74999999999999
 20
3.5
 30
203.0
 11
81.74999999999999
 21
0.0
 31
203.0
  0
LINE
  5
90
330
73
100
AcDbEntity
  8
0
 62
     0
100
AcDbLine
 10
-0.25
 20
3.5
 30
203.0
 11
81.74999999999999
 21
3.5
 31
203.0
  0
LINE
  5
91
330
73
100
AcDbEntity
  8
0
 62
     0
100
AcDbLine
 10
-0.25
 20
0.0000000000000011
 30
203.0
 11
-0.25
 21
3.5
 31
203.0
  0
POLYLINE
  5
92
330
73
100
AcDbEntity
  8
0
 62
     0
100
AcDbPolyFaceMesh
 66
     1
 10
0.0
 20
0.0
 30
0.0
 70
    64
 71
     4
 72
     2
1001
ACAD_MATERIAL_MAPPER
1070
     1
1070
     1
1070
     1
1011
0.0
1021
0.0
1031
0.0
1011
0.0
1021
-2.54
1031
0.0
1011
0.0
1021
0.0
1031
2.54
1011
1.0
1021
0.0
1031
0.0
  0
VERTEX
  5
93
330
92
100
AcDbEntity
  8
0
 62
     0
100
AcDbVertex
100
AcDbPolyFaceMeshVertex
 10
-0.25
 20
3.5
 30
203.0
 70
   192
  0
VERTEX
  5
94
330
92
100
AcDbEntity
  8
0
 62
     0
100
AcDbVertex
100
AcDbPolyFaceMeshVertex
 10
-0.25
 20
0.0000000000000011
 30
0.0
 70
   192
  0
VERTEX
  5
95
330
92
100
AcDbEntity
  8
0
 62
     0
100
AcDbVertex
100
AcDbPolyFaceMeshVertex
 10
-0.25
 20
0.0000000000000011
 30
203.0
 70
   192
  0
VERTEX
  5
96
330
92
100
AcDbEntity
  8
0
 62
     0
100
AcDbVertex
100
AcDbPolyFaceMeshVertex
 10
-0.25
 20
3.5
 30
0.0
 70
   192
  0
VERTEX
  5
97
330
92
100
AcDbEntity
  8
0
 62
     0
100
AcDbFaceRecord
 10
0.0
 20
0.0
 30
0.0
 70
   128
 71
    -1
 72
     2
 73
     3
  0
VERTEX
  5
98
330
92
100
AcDbEntity
  8
0
 62
     0
100
AcDbFaceRecord
 10
0.0
 20
0.0
 30
0.0
 70
   128
 71
    -2
 72
     1
 73
     4
  0
SEQEND
  5
99
330
92
100
AcDbEntity
  8
0
 62
     0
  0
LINE
  5
9A
330
73
100
AcDbEntity
  8
0
 62
     0
100
AcDbLine
 10
-0.25
 20
0.0000000000000011
 30
0.0
 11
-0.25
 21
3.5
 31
0.0
  0
LINE
  5
9B
330
73
100
AcDbEntity
  8
0
 62
     0
100
AcDbLine
 10
-0.25
 20
0.0000000000000011
 30
0.0
 11
-0.25
 21
0.0000000000000011
 31
203.0
  0
LINE
  5
9C
330
73
100
AcDbEntity
  8
0
 62
     0
100
AcDbLine
 10
-0.25
 20
0.0000000000000011
 30
203.0
 11
-0.25
 21
3.5
 31
203.0
  0
LINE
  5
9D
330
73
100
AcDbEntity
  8
0
 62
     0
100
AcDbLine
 10
-0.25
 20
3.5
 30
0.0
 11
-0.25
 21
3.5
 31
203.0
  0
POLYLINE
  5
9E
330
73
100
AcDbEntity
  8
0
 62
     0
100
AcDbPolyFaceMesh
 66
     1
 10
0.0
 20
0.0
 30
0.0
 70
    64
 71
     4
 72
     2
1001
ACAD_MATERIAL_MAPPER
1070
     1
1070
     1
1070
     1
1011
0.0
1021
0.0
1031
0.0
1011
0.0
1021
2.54
1031
0.0
1011
0.0
1021
0.0
1031
2.54
1011
1.0
1021
0.0
1031
0.0
  0
VERTEX
  5
9F
330
9E
100
AcDbEntity
  8
0
 62
     0
100
AcDbVertex
100
AcDbPolyFaceMeshVertex
 10
81.74999999999999
 20
3.5
 30
0.0
 70
   192
  0
VERTEX
  5
A0
330
9E
100
AcDbEntity
  8
0
 62
     0
100
AcDbVertex
100
AcDbPolyFaceMeshVertex
 10
81.74999999999999
 20
0.0
 30
203.0
 70
   192
  0
VERTEX
  5
A1
330
9E
100
AcDbEntity
  8
0
 62
     0
100
AcDbVertex
100
AcDbPolyFaceMeshVertex
 10
81.74999999999999
 20
0.0
 30
0.0
 70
   192
  0
VERTEX
  5
A2
330
9E
100
AcDbEntity
  8
0
 62
     0
100
AcDbVertex
100
AcDbPolyFaceMeshVertex
 10
81.74999999999999
 20
3.5
 30
203.0
 70
   192
  0
VERTEX
  5
A3
330
9E
100
AcDbEntity
  8
0
 62
     0
100
AcDbFaceRecord
 10
0.0
 20
0.0
 30
0.0
 70
   128
 71
    -1
 72
     2
 73
     3
  0
VERTEX
  5
A4
330
9E
100
AcDbEntity
  8
0
 62
     0
100
AcDbFaceRecord
 10
0.0
 20
0.0
 30
0.0
 70
   128
 71
    -2
 72
     1
 73
     4
  0
SEQEND
  5
A5
330
9E
100
AcDbEntity
  8
0
 62
     0
  0
LINE
  5
A6
330
73
100
AcDbEntity
  8
0
 62
     0
100
AcDbLine
 10
81.74999999999999
 20
3.5
 30
0.0
 11
81.74999999999999
 21
0.0
 31
0.0
  0
LINE
  5
A7
330
73
100
AcDbEntity
  8
0
 62
     0
100
AcDbLine
 10
81.74999999999999
 20
3.5
 30
0.0
 11
81.74999999999999
 21
3.5
 31
203.0
  0
LINE
  5
A8
330
73
100
AcDbEntity
  8
0
 62
     0
100
AcDbLine
 10
81.74999999999999
 20
3.5
 30
203.0
 11
81.74999999999999
 21
0.0
 31
203.0
  0
LINE
  5
A9
330
73
100
AcDbEntity
  8
0
 62
     0
100
AcDbLine
 10
81.74999999999999
 20
0.0
 30
0.0
 11
81.74999999999999
 21
0.0
 31
203.0
  0
POLYLINE
  5
AA
330
73
100
AcDbEntity
  8
0
 62
     0
100
AcDbPolyFaceMesh
 66
     1
 10
0.0
 20
0.0
 30
0.0
 70
    64
 71
     4
 72
     2
1001
ACAD_MATERIAL_MAPPER
1070
     1
1070
     1
1070
     1
1011
0.0
1021
0.0
1031
41.16216335772047
1011
0.0
1021
2.54
1031
41.16216335772047
1011
0.0
1021
0.0
1031
43.1772808420602
1011
1.0
1021
0.0
1031
41.16216335772047
  0
VERTEX
  5
AB
330
AA
100
AcDbEntity
  8
0
 62
     0
100
AcDbVertex
100
AcDbPolyFaceMeshVertex
 10
8.761522368914935
 20
3.5
 30
99.65359402943052
 70
   192
  0
VERTEX
  5
AC
330
AA
100
AcDbEntity
  8
0
 62
     0
100
AcDbVertex
100
AcDbPolyFaceMeshVertex
 10
8.348333950160418
 20
0.0000000000000011
 30
100.1920716605156
 70
   192
  0
VERTEX
  5
AD
330
AA
100
AcDbEntity
  8
0
 62
     0
100
AcDbVertex
100
AcDbPolyFaceMeshVertex
 10
8.761522368914935
 20
0.0000000000000011
 30
99.65359402943052
 70
   192
  0
VERTEX
  5
AE
330
AA
100
AcDbEntity
  8
0
 62
     0
100
AcDbVertex
100
AcDbPolyFaceMeshVertex
 10
8.348333950160418
 20
3.5
 30
100.1920716605156
 70
   192
  0
VERTEX
  5
AF
330
AA
100
AcDbEntity
  8
0
 62
     0
100
AcDbFaceRecord
 10
0.0
 20
0.0
 30
0.0
 70
   128
 71
    -1
 72
     2
 73
     3
  0
VERTEX
  5
B0
330
AA
100
AcDbEntity
  8
0
 62
     0
100
AcDbFaceRecord
 10
0.0
 20
0.0
 30
0.0
 70
   128
 71
    -2
 72
     1
 73
     4
  0
SEQEND
  5
B1
330
AA
100
AcDbEntity
  8
0
 62
     0
  0
CIRCLE
  5
B2
330
73
100
AcDbEntity
  8
0
 62
     0
100
AcDbCircle
 10
-10.59999999999997
 20
101.4920716605155
 30
0.0000000000000011
 40
2.599999999999986
210
0.0
220
1.0
230
0.0
  0
LINE
  5
B3
330
73
100
AcDbEntity
  8
0
 62
     0
100
AcDbLine
 10
8.761522368914935
 20
0.0000000000000011
 30
99.65359402943052
 11
8.761522368914935
 21
3.5
 31
99.65359402943052
  0
CIRCLE
  5
B4
330
73
100
AcDbEntity
  8
0
 62
     0
100
AcDbCircle
 10
-10.59999999999997
 20
101.4920716605155
 30
3.5
 40
2.599999999999986
210
0.0
220
1.0
230
0.0
  0
LINE
  5
B5
330
73
100
AcDbEntity
  8
0
 62
     0
100
AcDbLine
 10
8.348333950160418
 20
0.0000000000000011
 30
100.1920716605156
 11
8.348333950160418
 21
3.5
 31
100.1920716605156
  0
POLYLINE
  5
B6
330
73
100
AcDbEntity
  8
0
 62
     0
100
AcDbPolyFaceMesh
 66
     1
 10
0.0
 20
0.0
 30
0.0
 70
    64
 71
     4
 72
     2
1001
ACAD_MATERIAL_MAPPER
1070
     1
1070
     1
1070
     1
1011
51.37592683564964
1021
0.0
1031
0.0
1011
51.37592683564964
1021
2.54
1031
0.0
1011
49.36080935130988
1021
0.0
1031
0.0
1011
51.37592683564964
1021
0.0
1031
1.0
  0
VERTEX
  5
B7
330
B6
100
AcDbEntity
  8
0
 62
     0
100
AcDbVertex
100
AcDbPolyFaceMeshVertex
 10
9.29999999999998
 20
0.0000000000000011
 30
99.240405610676
 70
   192
  0
VERTEX
  5
B8
330
B6
100
AcDbEntity
  8
0
 62
     0
100
AcDbVertex
100
AcDbPolyFaceMeshVertex
 10
8.761522368914935
 20
3.5
 30
99.65359402943052
 70
   192
  0
VERTEX
  5
B9
330
B6
100
AcDbEntity
  8
0
 62
     0
100
AcDbVertex
100
AcDbPolyFaceMeshVertex
 10
8.761522368914935
 20
0.0000000000000011
 30
99.65359402943052
 70
   192
  0
VERTEX
  5
BA
330
B6
100
AcDbEntity
  8
0
 62
     0
100
AcDbVertex
100
AcDbPolyFaceMeshVertex
 10
9.29999999999998
 20
3.5
 30
99.240405610676
 70
   192
  0
VERTEX
  5
BB
330
B6
100
AcDbEntity
  8
0
 62
     0
100
AcDbFaceRecord
 10
0.0
 20
0.0
 30
0.0
 70
   128
 71
    -1
 72
     2
 73
     3
  0
VERTEX
  5
BC
330
B6
100
AcDbEntity
  8
0
 62
     0
100
AcDbFaceRecord
 10
0.0
 20
0.0
 30
0.0
 70
   128
 71
    -2
 72
     1
 73
     4
  0
SEQEND
  5
BD
330
B6
100
AcDbEntity
  8
0
 62
     0
  0
CIRCLE
  5
BE
330
73
100
AcDbEntity
  8
0
 62
     0
100
AcDbCircle
 10
-10.59999999999997
 20
101.4920716605155
 30
0.0000000000000011
 40
2.599999999999986
210
0.0
220
1.0
230
0.0
  0
LINE
  5
BF
330
73
100
AcDbEntity
  8
0
 62
     0
100
AcDbLine
 10
9.29999999999998
 20
0.0000000000000011
 30
99.240405610676
 11
9.29999999999998
 21
3.5
 31
99.240405610676
  0
CIRCLE
  5
C0
330
73
100
AcDbEntity
  8
0
 62
     0
100
AcDbCircle
 10
-10.59999999999997
 20
101.4920716605155
 30
3.5
 40
2.599999999999986
210
0.0
220
1.0
230
0.0
  0
LINE
  5
C1
330
73
100
AcDbEntity
  8
0
 62
     0
100
AcDbLine
 10
8.761522368914935
 20
0.0000000000000011
 30
99.65359402943052
 11
8.761522368914935
 21
3.5
 31
99.65359402943052
  0
POLYLINE
  5
C2
330
73
100
AcDbEntity
  8
0
 62
     0
100
AcDbPolyFaceMesh
 66
     1
 10
0.0
 20
0.0
 30
0.0
 70
    64
 71
     4
 72
     2
1001
ACAD_MATERIAL_MAPPER
1070
     1
1070
     1
1070
     1
1011
36.44873535498898
1021
0.0
1031
0.0
1011
36.44873535498898
1021
2.54
1031
0.0
1011
34.1020813424103
1021
0.0
1031
0.0
1011
36.44873535498898
1021
0.0
1031
1.0
  0
VERTEX
  5
C3
330
C2
100
AcDbEntity
  8
0
 62
     0
100
AcDbVertex
100
AcDbPolyFaceMeshVertex
 10
9.92707048273342
 20
0.0000000000000011
 30
98.98066451216397
 70
   192
  0
VERTEX
  5
C4
330
C2
100
AcDbEntity
  8
0
 62
     0
100
AcDbVertex
100
AcDbPolyFaceMeshVertex
 10
9.29999999999998
 20
3.5
 30
99.240405610676
 70
   192
  0
VERTEX
  5
C5
330
C2
100
AcDbEntity
  8
0
 62
     0
100
AcDbVertex
100
AcDbPolyFaceMeshVertex
 10
9.29999999999998
 20
0.0000000000000011
 30
99.240405610676
 70
   192
  0
VERTEX
  5
C6
330
C2
100
AcDbEntity
  8
0
 62
     0
100
AcDbVertex
100
AcDbPolyFaceMeshVertex
 10
9.92707048273342
 20
3.5
 30
98.98066451216397
 70
   192
  0
VERTEX
  5
C7
330
C2
100
AcDbEntity
  8
0
 62
     0
100
AcDbFaceRecord
 10
0.0
 20
0.0
 30
0.0
 70
   128
 71
    -1
 72
     2
 73
     3
  0
VERTEX
  5
C8
330
C2
100
AcDbEntity
  8
0
 62
     0
100
AcDbFaceRecord
 10
0.0
 20
0.0
 30
0.0
 70
   128
 71
    -2
 72
     1
 73
     4
  0
SEQEND
  5
C9
330
C2
100
AcDbEntity
  8
0
 62
     0
  0
CIRCLE
  5
CA
330
73
100
AcDbEntity
  8
0
 62
     0
100
AcDbCircle
 10
-10.59999999999997
 20
101.4920716605155
 30
0.0000000000000011
 40
2.599999999999986
210
0.0
220
1.0
230
0.0
  0
LINE
  5
CB
330
73
100
AcDbEntity
  8
0
 62
     0
100
AcDbLine
 10
9.92707048273342
 20
0.0000000000000011
 30
98.98066451216397
 11
9.92707048273342
 21
3.5
 31
98.98066451216397
  0
CIRCLE
  5
CC
330
73
100
AcDbEntity
  8
0
 62
     0
100
AcDbCircle
 10
-10.59999999999997
 20
101.4920716605155
 30
3.5
 40
2.599999999999986
210
0.0
220
1.0
230
0.0
  0
LINE
  5
CD
330
73
100
AcDbEntity
  8
0
 62
     0
100
AcDbLine
 10
9.29999999999998
 20
0.0000000000000011
 30
99.240405610676
 11
9.29999999999998
 21
3.5
 31
99.240405610676
  0
POLYLINE
  5
CE
330
73
100
AcDbEntity
  8
0
 62
     0
100
AcDbPolyFaceMesh
 66
     1
 10
0.0
 20
0.0
 30
0.0
 70
    64
 71
     4
 72
     2
1001
ACAD_MATERIAL_MAPPER
1070
     1
1070
     1
1070
     1
1011
12.9781688983592
1021
0.0
1031
0.0
1011
12.9781688983592
1021
2.54
1031
0.0
1011
10.45989895046971
1021
0.0
1031
0.0
1011
12.9781688983592
1021
0.0
1031
1.0
  0
VERTEX
  5
CF
330
CE
100
AcDbEntity
  8
0
 62
     0
100
AcDbVertex
100
AcDbPolyFaceMeshVertex
 10
10.59999999999997
 20
0.0000000000000011
 30
98.89207166051555
 70
   192
  0
VERTEX
  5
D0
330
CE
100
AcDbEntity
  8
0
 62
     0
100
AcDbVertex
100
AcDbPolyFaceMeshVertex
 10
9.92707048273342
 20
3.5
 30
98.98066451216397
 70
   192
  0
VERTEX
  5
D1
330
CE
100
AcDbEntity
  8
0
 62
     0
100
AcDbVertex
100
AcDbPolyFaceMeshVertex
 10
9.92707048273342
 20
0.0000000000000011
 30
98.98066451216397
 70
   192
  0
VERTEX
  5
D2
330
CE
100
AcDbEntity
  8
0
 62
     0
100
AcDbVertex
100
AcDbPolyFaceMeshVertex
 10
10.59999999999997
 20
3.5
 30
98.89207166051555
 70
   192
  0
VERTEX
  5
D3
330
CE
100
AcDbEntity
  8
0
 62
     0
100
AcDbFaceRecord
 10
0.0
 20
0.0
 30
0.0
 70
   128
 71
    -1
 72
     2
 73
     3
  0
VERTEX
  5
D4
330
CE
100
AcDbEntity
  8
0
 62
     0
100
AcDbFaceRecord
 10
0.0
 20
0.0
 30
0.0
 70
   128
 71
    -2
 72
     1
 73
     4
  0
SEQEND
  5
D5
330
CE
100
AcDbEntity
  8
0
 62
     0
  0
CIRCLE
  5
D6
330
73
100
AcDbEntity
  8
0
 62
     0
100
AcDbCircle
 10
-10.59999999999997
 20
101.4920716605155
 30
0.0000000000000011
 40
2.599999999999986
210
0.0
220
1.0
230
0.0
  0
LINE
  5
D7
330
73
100
AcDbEntity
  8
0
 62
     0
100
AcDbLine
 10
10.59999999999997
 20
0.0000000000000011
 30
98.89207166051555
 11
10.59999999999997
 21
3.5
 31
98.89207166051555
  0
CIRCLE
  5
D8
330
73
100
AcDbEntity
  8
0
 62
     0
100
AcDbCircle
 10
-10.59999999999997
 20
101.4920716605155
 30
3.5
 40
2.599999999999986
210
0.0
220
1.0
230
0.0
  0
LINE
  5
D9
330
73
100
AcDbEntity
  8
0
 62
     0
100
AcDbLine
 10
9.92707048273342
 20
0.0000000000000011
 30
98.98066451216397
 11
9.92707048273342
 21
3.5
 31
98.98066451216397
  0
POLYLINE
  5
DA
330
73
100
AcDbEntity
  8
0
 62
     0
100
AcDbPolyFaceMesh
 66
     1
 10
0.0
 20
0.0
 30
0.0
 70
    64
 71
     4
 72
     2
1001
ACAD_MATERIAL_MAPPER
1070
     1
1070
     1
1070
     1
1011
-12.61698265702357
1021
0.0
1031
0.0
1011
-12.61698265702357
1021
-2.54
1031
0.0
1011
-10.09871270913408
1021
0.0
1031
0.0
1011
-12.61698265702357
1021
0.0
1031
1.0
  0
VERTEX
  5
DB
330
DA
100
AcDbEntity
  8
0
 62
     0
100
AcDbVertex
100
AcDbPolyFaceMeshVertex
 10
11.27292951726652
 20
0.0000000000000011
 30
98.98066451216397
 70
   192
  0
VERTEX
  5
DC
330
DA
100
AcDbEntity
  8
0
 62
     0
100
AcDbVertex
100
AcDbPolyFaceMeshVertex
 10
10.59999999999997
 20
3.5
 30
98.89207166051555
 70
   192
  0
VERTEX
  5
DD
330
DA
100
AcDbEntity
  8
0
 62
     0
100
AcDbVertex
100
AcDbPolyFaceMeshVertex
 10
10.59999999999997
 20
0.0000000000000011
 30
98.89207166051555
 70
   192
  0
VERTEX
  5
DE
330
DA
100
AcDbEntity
  8
0
 62
     0
100
AcDbVertex
100
AcDbPolyFaceMeshVertex
 10
11.27292951726652
 20
3.5
 30
98.98066451216397
 70
   192
  0
VERTEX
  5
DF
330
DA
100
AcDbEntity
  8
0
 62
     0
100
AcDbFaceRecord
 10
0.0
 20
0.0
 30
0.0
 70
   128
 71
    -1
 72
     2
 73
     3
  0
VERTEX
  5
E0
330
DA
100
AcDbEntity
  8
0
 62
     0
100
AcDbFaceRecord
 10
0.0
 20
0.0
 30
0.0
 70
   128
 71
    -2
 72
     1
 73
     4
  0
SEQEND
  5
E1
330
DA
100
AcDbEntity
  8
0
 62
     0
  0
CIRCLE
  5
E2
330
73
100
AcDbEntity
  8
0
 62
     0
100
AcDbCircle
 10
-10.59999999999997
 20
101.4920716605155
 30
0.0000000000000011
 40
2.599999999999986
210
0.0
220
1.0
230
0.0
  0
LINE
  5
E3
330
73
100
AcDbEntity
  8
0
 62
     0
100
AcDbLine
 10
11.27292951726652
 20
0.0000000000000011
 30
98.98066451216397
 11
11.27292951726652
 21
3.5
 31
98.98066451216397
  0
CIRCLE
  5
E4
330
73
100
AcDbEntity
  8
0
 62
     0
100
AcDbCircle
 10
-10.59999999999997
 20
101.4920716605155
 30
3.5
 40
2.599999999999986
210
0.0
220
1.0
230
0.0
  0
LINE
  5
E5
330
73
100
AcDbEntity
  8
0
 62
     0
100
AcDbLine
 10
10.59999999999997
 20
0.0000000000000011
 30
98.89207166051555
 11
10.59999999999997
 21
3.5
 31
98.89207166051555
  0
POLYLINE
  5
E6
330
73
100
AcDbEntity
  8
0
 62
     0
100
AcDbPolyFaceMesh
 66
     1
 10
0.0
 20
0.0
 30
0.0
 70
    64
 71
     4
 72
     2
1001
ACAD_MATERIAL_MAPPER
1070
     1
1070
     1
1070
     1
1011
-33.34406723556636
1021
0.0
1031
0.0
1011
-33.34406723556636
1021
-2.54
1031
0.0
1011
-30.9974132229877
1021
0.0
1031
0.0
1011
-33.34406723556636
1021
0.0
1031
1.0
  0
VERTEX
  5
E7
330
E6
100
AcDbEntity
  8
0
 62
     0
100
AcDbVertex
100
AcDbPolyFaceMeshVertex
 10
11.89999999999996
 20
0.0000000000000011
 30
99.240405610676
 70
   192
  0
VERTEX
  5
E8
330
E6
100
AcDbEntity
  8
0
 62
     0
100
AcDbVertex
100
AcDbPolyFaceMeshVertex
 10
11.27292951726652
 20
3.5
 30
98.98066451216397
 70
   192
  0
VERTEX
  5
E9
330
E6
100
AcDbEntity
  8
0
 62
     0
100
AcDbVertex
100
AcDbPolyFaceMeshVertex
 10
11.27292951726652
 20
0.0000000000000011
 30
98.98066451216397
 70
   192
  0
VERTEX
  5
EA
330
E6
100
AcDbEntity
  8
0
 62
     0
100
AcDbVertex
100
AcDbPolyFaceMeshVertex
 10
11.89999999999996
 20
3.5
 30
99.240405610676
 70
   192
  0
VERTEX
  5
EB
330
E6
100
AcDbEntity
  8
0
 62
     0
100
AcDbFaceRecord
 10
0.0
 20
0.0
 30
0.0
 70
   128
 71
    -1
 72
     2
 73
     3
  0
VERTEX
  5
EC
330
E6
100
AcDbEntity
  8
0
 62
     0
100
AcDbFaceRecord
 10
0.0
 20
0.0
 30
0.0
 70
   128
 71
    -2
 72
     1
 73
     4
  0
SEQEND
  5
ED
330
E6
100
AcDbEntity
  8
0
 62
     0
  0
CIRCLE
  5
EE
330
73
100
AcDbEntity
  8
0
 62
     0
100
AcDbCircle
 10
-10.59999999999997
 20
101.4920716605155
 30
0.0000000000000011
 40
2.599999999999986
210
0.0
220
1.0
230
0.0
  0
LINE
  5
EF
330
73
100
AcDbEntity
  8
0
 62
     0
100
AcDbLine
 10
11.89999999999996
 20
0.0000000000000011
 30
99.240405610676
 11
11.89999999999996
 21
3.5
 31
99.240405610676
  0
CIRCLE
  5
F0
330
73
100
AcDbEntity
  8
0
 62
     0
100
AcDbCircle
 10
-10.59999999999997
 20
101.4920716605155
 30
3.5
 40
2.599999999999986
210
0.0
220
1.0
230
0.0
  0
LINE
  5
F1
330
73
100
AcDbEntity
  8
0
 62
     0
100
AcDbLine
 10
11.27292951726652
 20
0.0000000000000011
 30
98.98066451216397
 11
11.27292951726652
 21
3.5
 31
98.98066451216397
  0
POLYLINE
  5
F2
330
73
100
AcDbEntity
  8
0
 62
     0
100
AcDbPolyFaceMesh
 66
     1
 10
0.0
 20
0.0
 30
0.0
 70
    64
 71
     4
 72
     2
1001
ACAD_MATERIAL_MAPPER
1070
     1
1070
     1
1070
     1
1011
-43.51940871373669
1021
0.0
1031
0.0
1011
-43.51940871373669
1021
-2.54
1031
0.0
1011
-41.50429122939694
1021
0.0
1031
0.0
1011
-43.51940871373669
1021
0.0
1031
1.0
  0
VERTEX
  5
F3
330
F2
100
AcDbEntity
  8
0
 62
     0
100
AcDbVertex
100
AcDbPolyFaceMeshVertex
 10
12.43847763108501
 20
0.0000000000000011
 30
99.65359402943052
 70
   192
  0
VERTEX
  5
F4
330
F2
100
AcDbEntity
  8
0
 62
     0
100
AcDbVertex
100
AcDbPolyFaceMeshVertex
 10
11.89999999999996
 20
3.5
 30
99.240405610676
 70
   192
  0
VERTEX
  5
F5
330
F2
100
AcDbEntity
  8
0
 62
     0
100
AcDbVertex
100
AcDbPolyFaceMeshVertex
 10
11.89999999999996
 20
0.0000000000000011
 30
99.240405610676
 70
   192
  0
VERTEX
  5
F6
330
F2
100
AcDbEntity
  8
0
 62
     0
100
AcDbVertex
100
AcDbPolyFaceMeshVertex
 10
12.43847763108501
 20
3.5
 30
99.65359402943052
 70
   192
  0
VERTEX
  5
F7
330
F2
100
AcDbEntity
  8
0
 62
     0
100
AcDbFaceRecord
 10
0.0
 20
0.0
 30
0.0
 70
   128
 71
    -1
 72
     2
 73
     3
  0
VERTEX
  5
F8
330
F2
100
AcDbEntity
  8
0
 62
     0
100
AcDbFaceRecord
 10
0.0
 20
0.0
 30
0.0
 70
   128
 71
    -2
 72
     1
 73
     4
  0
SEQEND
  5
F9
330
F2
100
AcDbEntity
  8
0
 62
     0
  0
CIRCLE
  5
FA
330
73
100
AcDbEntity
  8
0
 62
     0
100
AcDbCircle
 10
-10.59999999999997
 20
101.4920716605155
 30
0.0000000000000011
 40
2.599999999999986
210
0.0
220
1.0
230
0.0
  0
LINE
  5
FB
330
73
100
AcDbEntity
  8
0
 62
     0
100
AcDbLine
 10
12.43847763108501
 20
0.0000000000000011
 30
99.65359402943052
 11
12.43847763108501
 21
3.5
 31
99.65359402943052
  0
CIRCLE
  5
FC
330
73
100
AcDbEntity
  8
0
 62
     0
100
AcDbCircle
 10
-10.59999999999997
 20
101.4920716605155
 30
3.5
 40
2.599999999999986
210
0.0
220
1.0
230
0.0
  0
LINE
  5
FD
330
73
100
AcDbEntity
  8
0
 62
     0
100
AcDbLine
 10
11.89999999999996
 20
0.0000000000000011
 30
99.240405610676
 11
11.89999999999996
 21
3.5
 31
99.240405610676
  0
POLYLINE
  5
FE
330
73
100
AcDbEntity
  8
0
 62
     0
100
AcDbPolyFaceMesh
 66
     1
 10
0.0
 20
0.0
 30
0.0
 70
    64
 71
     4
 72
     2
1001
ACAD_MATERIAL_MAPPER
1070
     1
1070
     1
1070
     1
1011
0.0
1021
0.0
1031
30.92334959905735
1011
0.0
1021
-2.54
1031
30.92334959905735
1011
0.0
1021
0.0
1031
32.93846708339706
1011
1.0
1021
0.0
1031
30.92334959905735
  0
VERTEX
  5
FF
330
FE
100
AcDbEntity
  8
0
 62
     0
100
AcDbVertex
100
AcDbPolyFaceMeshVertex
 10
12.85166604983953
 20
3.5
 30
100.1920716605156
 70
   192
  0
VERTEX
  5
100
330
FE
100
AcDbEntity
  8
0
 62
     0
100
AcDbVertex
100
AcDbPolyFaceMeshVertex
 10
12.43847763108501
 20
0.0000000000000011
 30
99.65359402943052
 70
   192
  0
VERTEX
  5
101
330
FE
100
AcDbEntity
  8
0
 62
     0
100
AcDbVertex
100
AcDbPolyFaceMeshVertex
 10
12.85166604983953
 20
0.0000000000000011
 30
100.1920716605156
 70
   192
  0
VERTEX
  5
102
330
FE
100
AcDbEntity
  8
0
 62
     0
100
AcDbVertex
100
AcDbPolyFaceMeshVertex
 10
12.43847763108501
 20
3.5
 30
99.65359402943052
 70
   192
  0
VERTEX
  5
103
330
FE
100
AcDbEntity
  8
0
 62
     0
100
AcDbFaceRecord
 10
0.0
 20
0.0
 30
0.0
 70
   128
 71
    -1
 72
     2
 73
     3
  0
VERTEX
  5
104
330
FE
100
AcDbEntity
  8
0
 62
     0
100
AcDbFaceRecord
 10
0.0
 20
0.0
 30
0.0
 70
   128
 71
    -2
 72
     1
 73
     4
  0
SEQEND
  5
105
330
FE
100
AcDbEntity
  8
0
 62
     0
  0
CIRCLE
  5
106
330
73
100
AcDbEntity
  8
0
 62
     0
100
AcDbCircle
 10
-10.59999999999997
 20
101.4920716605155
 30
0.0000000000000011
 40
2.599999999999986
210
0.0
220
1.0
230
0.0
  0
LINE
  5
107
330
73
100
AcDbEntity
  8
0
 62
     0
100
AcDbLine
 10
12.85166604983953
 20
0.0000000000000011
 30
100.1920716605156
 11
12.85166604983953
 21
3.5
 31
100.1920716605156
  0
CIRCLE
  5
108
330
73
100
AcDbEntity
  8
0
 62
     0
100
AcDbCircle
 10
-10.59999999999997
 20
101.4920716605155
 30
3.5
 40
2.599999999999986
210
0.0
220
1.0
230
0.0
  0
LINE
  5
109
330
73
100
AcDbEntity
  8
0
 62
     0
100
AcDbLine
 10
12.43847763108501
 20
0.0000000000000011
 30
99.65359402943052
 11
12.43847763108501
 21
3.5
 31
99.65359402943052
  0
POLYLINE
  5
10A
330
73
100
AcDbEntity
  8
0
 62
     0
100
AcDbPolyFaceMesh
 66
     1
 10
0.0
 20
0.0
 30
0.0
 70
    64
 71
     4
 72
     2
1001
ACAD_MATERIAL_MAPPER
1070
     1
1070
     1
1070
     1
1011
0.0
1021
0.0
1031
10.1290390774257
1011
0.0
1021
-2.54
1031
10.1290390774257
1011
0.0
1021
0.0
1031
12.47569309000438
1011
1.0
1021
0.0
1031
10.1290390774257
  0
VERTEX
  5
10B
330
10A
100
AcDbEntity
  8
0
 62
     0
100
AcDbVertex
100
AcDbPolyFaceMeshVertex
 10
13.11140714835156
 20
3.5
 30
100.819142143249
 70
   192
  0
VERTEX
  5
10C
330
10A
100
AcDbEntity
  8
0
 62
     0
100
AcDbVertex
100
AcDbPolyFaceMeshVertex
 10
12.85166604983953
 20
0.0000000000000011
 30
100.1920716605156
 70
   192
  0
VERTEX
  5
10D
330
10A
100
AcDbEntity
  8
0
 62
     0
100
AcDbVertex
100
AcDbPolyFaceMeshVertex
 10
13.11140714835156
 20
0.0000000000000011
 30
100.819142143249
 70
   192
  0
VERTEX
  5
10E
330
10A
100
AcDbEntity
  8
0
 62
     0
100
AcDbVertex
100
AcDbPolyFaceMeshVertex
 10
12.85166604983953
 20
3.5
 30
100.1920716605156
 70
   192
  0
VERTEX
  5
10F
330
10A
100
AcDbEntity
  8
0
 62
     0
100
AcDbFaceRecord
 10
0.0
 20
0.0
 30
0.0
 70
   128
 71
    -1
 72
     2
 73
     3
  0
VERTEX
  5
110
330
10A
100
AcDbEntity
  8
0
 62
     0
100
AcDbFaceRecord
 10
0.0
 20
0.0
 30
0.0
 70
   128
 71
    -2
 72
     1
 73
     4
  0
SEQEND
  5
111
330
10A
100
AcDbEntity
  8
0
 62
     0
  0
CIRCLE
  5
112
330
73
100
AcDbEntity
  8
0
 62
     0
100
AcDbCircle
 10
-10.59999999999997
 20
101.4920716605155
 30
0.0000000000000011
 40
2.599999999999986
210
0.0
220
1.0
230
0.0
  0
LINE
  5
113
330
73
100
AcDbEntity
  8
0
 62
     0
100
AcDbLine
 10
13.11140714835156
 20
0.0000000000000011
 30
100.819142143249
 11
13.11140714835156
 21
3.5
 31
100.819142143249
  0
CIRCLE
  5
114
330
73
100
AcDbEntity
  8
0
 62
     0
100
AcDbCircle
 10
-10.59999999999997
 20
101.4920716605155
 30
3.5
 40
2.599999999999986
210
0.0
220
1.0
230
0.0
  0
LINE
  5
115
330
73
100
AcDbEntity
  8
0
 62
     0
100
AcDbLine
 10
12.85166604983953
 20
0.0000000000000011
 30
100.1920716605156
 11
12.85166604983953
 21
3.5
 31
100.1920716605156
  0
POLYLINE
  5
116
330
73
100
AcDbEntity
  8
0
 62
     0
100
AcDbPolyFaceMesh
 66
     1
 10
0.0
 20
0.0
 30
0.0
 70
    64
 71
     4
 72
     2
1001
ACAD_MATERIAL_MAPPER
1070
     1
1070
     1
1070
     1
1011
0.0
1021
0.0
1031
0.0209235423426225
1011
0.0
1021
-2.54
1031
0.0209235423426225
1011
0.0
1021
0.0
1031
2.53919349023219
1011
1.0
1021
0.0
1031
0.0209235423426225
  0
VERTEX
  5
117
330
116
100
AcDbEntity
  8
0
 62
     0
100
AcDbVertex
100
AcDbPolyFaceMeshVertex
 10
13.19999999999996
 20
3.5
 30
101.4920716605155
 70
   192
  0
VERTEX
  5
118
330
116
100
AcDbEntity
  8
0
 62
     0
100
AcDbVertex
100
AcDbPolyFaceMeshVertex
 10
13.11140714835156
 20
0.0000000000000011
 30
100.819142143249
 70
   192
  0
VERTEX
  5
119
330
116
100
AcDbEntity
  8
0
 62
     0
100
AcDbVertex
100
AcDbPolyFaceMeshVertex
 10
13.19999999999996
 20
0.0000000000000011
 30
101.4920716605155
 70
   192
  0
VERTEX
  5
11A
330
116
100
AcDbEntity
  8
0
 62
     0
100
AcDbVertex
100
AcDbPolyFaceMeshVertex
 10
13.11140714835156
 20
3.5
 30
100.819142143249
 70
   192
  0
VERTEX
  5
11B
330
116
100
AcDbEntity
  8
0
 62
     0
100
AcDbFaceRecord
 10
0.0
 20
0.0
 30
0.0
 70
   128
 71
    -1
 72
     2
 73
     3
  0
VERTEX
  5
11C
330
116
100
AcDbEntity
  8
0
 62
     0
100
AcDbFaceRecord
 10
0.0
 20
0.0
 30
0.0
 70
   128
 71
    -2
 72
     1
 73
     4
  0
SEQEND
  5
11D
330
116
100
AcDbEntity
  8
0
 62
     0
  0
CIRCLE
  5
11E
330
73
100
AcDbEntity
  8
0
 62
     0
100
AcDbCircle
 10
-10.59999999999997
 20
101.4920716605155
 30
0.0000000000000011
 40
2.599999999999986
210
0.0
220
1.0
230
0.0
  0
LINE
  5
11F
330
73
100
AcDbEntity
  8
0
 62
     0
100
AcDbLine
 10
13.19999999999996
 20
0.0000000000000011
 30
101.4920716605155
 11
13.19999999999996
 21
3.5
 31
101.4920716605155
  0
CIRCLE
  5
120
330
73
100
AcDbEntity
  8
0
 62
     0
100
AcDbCircle
 10
-10.59999999999997
 20
101.4920716605155
 30
3.5
 40
2.599999999999986
210
0.0
220
1.0
230
0.0
  0
LINE
  5
121
330
73
100
AcDbEntity
  8
0
 62
     0
100
AcDbLine
 10
13.11140714835156
 20
0.0000000000000011
 30
100.819142143249
 11
13.11140714835156
 21
3.5
 31
100.819142143249
  0
POLYLINE
  5
122
330
73
100
AcDbEntity
  8
0
 62
     0
100
AcDbPolyFaceMesh
 66
     1
 10
0.0
 20
0.0
 30
0.0
 70
    64
 71
     4
 72
     2
1001
ACAD_MATERIAL_MAPPER
1070
     1
1070
     1
1070
     1
1011
0.0
1021
0.0
1031
3.437334937695275
1011
0.0
1021
-2.54
1031
3.437334937695275
1011
0.0
1021
0.0
1031
5.955604885584842
1011
1.0
1021
0.0
1031
3.437334937695275
  0
VERTEX
  5
123
330
122
100
AcDbEntity
  8
0
 62
     0
100
AcDbVertex
100
AcDbPolyFaceMeshVertex
 10
13.11140714835156
 20
3.5
 30
102.1650011777821
 70
   192
  0
VERTEX
  5
124
330
122
100
AcDbEntity
  8
0
 62
     0
100
AcDbVertex
100
AcDbPolyFaceMeshVertex
 10
13.19999999999996
 20
0.0000000000000011
 30
101.4920716605155
 70
   192
  0
VERTEX
  5
125
330
122
100
AcDbEntity
  8
0
 62
     0
100
AcDbVertex
100
AcDbPolyFaceMeshVertex
 10
13.11140714835156
 20
0.0000000000000011
 30
102.1650011777821
 70
   192
  0
VERTEX
  5
126
330
122
100
AcDbEntity
  8
0
 62
     0
100
AcDbVertex
100
AcDbPolyFaceMeshVertex
 10
13.19999999999996
 20
3.5
 30
101.4920716605155
 70
   192
  0
VERTEX
  5
127
330
122
100
AcDbEntity
  8
0
 62
     0
100
AcDbFaceRecord
 10
0.0
 20
0.0
 30
0.0
 70
   128
 71
    -1
 72
     2
 73
     3
  0
VERTEX
  5
128
330
122
100
AcDbEntity
  8
0
 62
     0
100
AcDbFaceRecord
 10
0.0
 20
0.0
 30
0.0
 70
   128
 71
    -2
 72
     1
 73
     4
  0
SEQEND
  5
129
330
122
100
AcDbEntity
  8
0
 62
     0
  0
CIRCLE
  5
12A
330
73
100
AcDbEntity
  8
0
 62
     0
100
AcDbCircle
 10
-10.59999999999997
 20
101.4920716605155
 30
0.0000000000000011
 40
2.599999999999986
210
0.0
220
1.0
230
0.0
  0
LINE
  5
12B
330
73
100
AcDbEntity
  8
0
 62
     0
100
AcDbLine
 10
13.11140714835156
 20
0.0000000000000011
 30
102.1650011777821
 11
13.11140714835156
 21
3.5
 31
102.1650011777821
  0
CIRCLE
  5
12C
330
73
100
AcDbEntity
  8
0
 62
     0
100
AcDbCircle
 10
-10.59999999999997
 20
101.4920716605155
 30
3.5
 40
2.599999999999986
210
0.0
220
1.0
230
0.0
  0
LINE
  5
12D
330
73
100
AcDbEntity
  8
0
 62
     0
100
AcDbLine
 10
13.19999999999996
 20
0.0000000000000011
 30
101.4920716605155
 11
13.19999999999996
 21
3.5
 31
101.4920716605155
  0
POLYLINE
  5
12E
330
73
100
AcDbEntity
  8
0
 62
     0
100
AcDbPolyFaceMesh
 66
     1
 10
0.0
 20
0.0
 30
0.0
 70
    64
 71
     4
 72
     2
1001
ACAD_MATERIAL_MAPPER
1070
     1
1070
     1
1070
     1
1011
0.0
1021
0.0
1031
19.59730047526824
1011
0.0
1021
-2.54
1031
19.59730047526824
1011
0.0
1021
0.0
1031
21.94395448784692
1011
1.0
1021
0.0
1031
19.59730047526824
  0
VERTEX
  5
12F
330
12E
100
AcDbEntity
  8
0
 62
     0
100
AcDbVertex
100
AcDbPolyFaceMeshVertex
 10
12.85166604983953
 20
3.5
 30
102.7920716605155
 70
   192
  0
VERTEX
  5
130
330
12E
100
AcDbEntity
  8
0
 62
     0
100
AcDbVertex
100
AcDbPolyFaceMeshVertex
 10
13.11140714835156
 20
0.0000000000000011
 30
102.1650011777821
 70
   192
  0
VERTEX
  5
131
330
12E
100
AcDbEntity
  8
0
 62
     0
100
AcDbVertex
100
AcDbPolyFaceMeshVertex
 10
12.85166604983953
 20
0.0000000000000011
 30
102.7920716605155
 70
   192
  0
VERTEX
  5
132
330
12E
100
AcDbEntity
  8
0
 62
     0
100
AcDbVertex
100
AcDbPolyFaceMeshVertex
 10
13.11140714835156
 20
3.5
 30
102.1650011777821
 70
   192
  0
VERTEX
  5
133
330
12E
100
AcDbEntity
  8
0
 62
     0
100
AcDbFaceRecord
 10
0.0
 20
0.0
 30
0.0
 70
   128
 71
    -1
 72
     2
 73
     3
  0
VERTEX
  5
134
330
12E
100
AcDbEntity
  8
0
 62
     0
100
AcDbFaceRecord
 10
0.0
 20
0.0
 30
0.0
 70
   128
 71
    -2
 72
     1
 73
     4
  0
SEQEND
  5
135
330
12E
100
AcDbEntity
  8
0
 62
     0
  0
CIRCLE
  5
136
330
73
100
AcDbEntity
  8
0
 62
     0
100
AcDbCircle
 10
-10.59999999999997
 20
101.4920716605155
 30
0.0000000000000011
 40
2.599999999999986
210
0.0
220
1.0
230
0.0
  0
LINE
  5
137
330
73
100
AcDbEntity
  8
0
 62
     0
100
AcDbLine
 10
12.85166604983953
 20
0.0000000000000011
 30
102.7920716605155
 11
12.85166604983953
 21
3.5
 31
102.7920716605155
  0
CIRCLE
  5
138
330
73
100
AcDbEntity
  8
0
 62
     0
100
AcDbCircle
 10
-10.59999999999997
 20
101.4920716605155
 30
3.5
 40
2.599999999999986
210
0.0
220
1.0
230
0.0
  0
LINE
  5
139
330
73
100
AcDbEntity
  8
0
 62
     0
100
AcDbLine
 10
13.11140714835156
 20
0.0000000000000011
 30
102.1650011777821
 11
13.11140714835156
 21
3.5
 31
102.1650011777821
  0
POLYLINE
  5
13A
330
73
100
AcDbEntity
  8
0
 62
     0
100
AcDbPolyFaceMesh
 66
     1
 10
0.0
 20
0.0
 30
0.0
 70
    64
 71
     4
 72
     2
1001
ACAD_MATERIAL_MAPPER
1070
     1
1070
     1
1070
     1
1011
0.0
1021
0.0
1031
44.30064098880464
1011
0.0
1021
-2.54
1031
44.30064098880464
1011
0.0
1021
0.0
1031
46.31575847314443
1011
1.0
1021
0.0
1031
44.30064098880464
  0
VERTEX
  5
13B
330
13A
100
AcDbEntity
  8
0
 62
     0
100
AcDbVertex
100
AcDbPolyFaceMeshVertex
 10
12.43847763108501
 20
3.5
 30
103.3305492916006
 70
   192
  0
VERTEX
  5
13C
330
13A
100
AcDbEntity
  8
0
 62
     0
100
AcDbVertex
100
AcDbPolyFaceMeshVertex
 10
12.85166604983953
 20
0.0000000000000011
 30
102.7920716605155
 70
   192
  0
VERTEX
  5
13D
330
13A
100
AcDbEntity
  8
0
 62
     0
100
AcDbVertex
100
AcDbPolyFaceMeshVertex
 10
12.43847763108501
 20
0.0000000000000011
 30
103.3305492916006
 70
   192
  0
VERTEX
  5
13E
330
13A
100
AcDbEntity
  8
0
 62
     0
100
AcDbVertex
100
AcDbPolyFaceMeshVertex
 10
12.85166604983953
 20
3.5
 30
102.7920716605155
 70
   192
  0
VERTEX
  5
13F
330
13A
100
AcDbEntity
  8
0
 62
     0
100
AcDbFaceRecord
 10
0.0
 20
0.0
 30
0.0
 70
   128
 71
    -1
 72
     2
 73
     3
  0
VERTEX
  5
140
330
13A
100
AcDbEntity
  8
0
 62
     0
100
AcDbFaceRecord
 10
0.0
 20
0.0
 30
0.0
 70
   128
 71
    -2
 72
     1
 73
     4
  0
SEQEND
  5
141
330
13A
100
AcDbEntity
  8
0
 62
     0
  0
CIRCLE
  5
142
330
73
100
AcDbEntity
  8
0
 62
     0
100
AcDbCircle
 10
-10.59999999999997
 20
101.4920716605155
 30
0.0000000000000011
 40
2.599999999999986
210
0.0
220
1.0
230
0.0
  0
LINE
  5
143
330
73
100
AcDbEntity
  8
0
 62
     0
100
AcDbLine
 10
12.43847763108501
 20
0.0000000000000011
 30
103.3305492916006
 11
12.43847763108501
 21
3.5
 31
103.3305492916006
  0
CIRCLE
  5
144
330
73
100
AcDbEntity
  8
0
 62
     0
100
AcDbCircle
 10
-10.59999999999997
 20
101.4920716605155
 30
3.5
 40
2.599999999999986
210
0.0
220
1.0
230
0.0
  0
LINE
  5
145
330
73
100
AcDbEntity
  8
0
 62
     0
100
AcDbLine
 10
12.85166604983953
 20
0.0000000000000011
 30
102.7920716605155
 11
12.85166604983953
 21
3.5
 31
102.7920716605155
  0
POLYLINE
  5
146
330
73
100
AcDbEntity
  8
0
 62
     0
100
AcDbPolyFaceMesh
 66
     1
 10
0.0
 20
0.0
 30
0.0
 70
    64
 71
     4
 72
     2
1001
ACAD_MATERIAL_MAPPER
1070
     1
1070
     1
1070
     1
1011
54.51440446673529
1021
0.0
1031
0.0
1011
54.51440446673529
1021
-2.54
1031
0.0
1011
52.4992869823955
1021
0.0
1031
0.0
1011
54.51440446673529
1021
0.0
1031
1.0
  0
VERTEX
  5
147
330
146
100
AcDbEntity
  8
0
 62
     0
100
AcDbVertex
100
AcDbPolyFaceMeshVertex
 10
12.43847763108501
 20
3.5
 30
103.3305492916006
 70
   192
  0
VERTEX
  5
148
330
146
100
AcDbEntity
  8
0
 62
     0
100
AcDbVertex
100
AcDbPolyFaceMeshVertex
 10
11.89999999999996
 20
0.0000000000000011
 30
103.7437377103551
 70
   192
  0
VERTEX
  5
149
330
146
100
AcDbEntity
  8
0
 62
     0
100
AcDbVertex
100
AcDbPolyFaceMeshVertex
 10
11.89999999999996
 20
3.5
 30
103.7437377103551
 70
   192
  0
VERTEX
  5
14A
330
146
100
AcDbEntity
  8
0
 62
     0
100
AcDbVertex
100
AcDbPolyFaceMeshVertex
 10
12.43847763108501
 20
0.0000000000000011
 30
103.3305492916006
 70
   192
  0
VERTEX
  5
14B
330
146
100
AcDbEntity
  8
0
 62
     0
100
AcDbFaceRecord
 10
0.0
 20
0.0
 30
0.0
 70
   128
 71
    -1
 72
     2
 73
     3
  0
VERTEX
  5
14C
330
146
100
AcDbEntity
  8
0
 62
     0
100
AcDbFaceRecord
 10
0.0
 20
0.0
 30
0.0
 70
   128
 71
    -2
 72
     1
 73
     4
  0
SEQEND
  5
14D
330
146
100
AcDbEntity
  8
0
 62
     0
  0
CIRCLE
  5
14E
330
73
100
AcDbEntity
  8
0
 62
     0
100
AcDbCircle
 10
-10.59999999999997
 20
101.4920716605155
 30
0.0000000000000011
 40
2.599999999999986
210
0.0
220
1.0
230
0.0
  0
LINE
  5
14F
330
73
100
AcDbEntity
  8
0
 62
     0
100
AcDbLine
 10
11.89999999999996
 20
0.0000000000000011
 30
103.7437377103551
 11
11.89999999999996
 21
3.5
 31
103.7437377103551
  0
CIRCLE
  5
150
330
73
100
AcDbEntity
  8
0
 62
     0
100
AcDbCircle
 10
-10.59999999999997
 20
101.4920716605155
 30
3.5
 40
2.599999999999986
210
0.0
220
1.0
230
0.0
  0
LINE
  5
151
330
73
100
AcDbEntity
  8
0
 62
     0
100
AcDbLine
 10
12.43847763108501
 20
0.0000000000000011
 30
103.3305492916006
 11
12.43847763108501
 21
3.5
 31
103.3305492916006
  0
POLYLINE
  5
152
330
73
100
AcDbEntity
  8
0
 62
     0
100
AcDbPolyFaceMesh
 66
     1
 10
0.0
 20
0.0
 30
0.0
 70
    64
 71
     4
 72
     2
1001
ACAD_MATERIAL_MAPPER
1070
     1
1070
     1
1070
     1
1011
38.42166487225533
1021
0.0
1031
0.0
1011
38.42166487225533
1021
-2.54
1031
0.0
1011
36.07501085967668
1021
0.0
1031
0.0
1011
38.42166487225533
1021
0.0
1031
1.0
  0
VERTEX
  5
153
330
152
100
AcDbEntity
  8
0
 62
     0
100
AcDbVertex
100
AcDbPolyFaceMeshVertex
 10
11.89999999999996
 20
3.5
 30
103.7437377103551
 70
   192
  0
VERTEX
  5
154
330
152
100
AcDbEntity
  8
0
 62
     0
100
AcDbVertex
100
AcDbPolyFaceMeshVertex
 10
11.27292951726652
 20
0.0000000000000011
 30
104.0034788088671
 70
   192
  0
VERTEX
  5
155
330
152
100
AcDbEntity
  8
0
 62
     0
100
AcDbVertex
100
AcDbPolyFaceMeshVertex
 10
11.27292951726652
 20
3.5
 30
104.0034788088671
 70
   192
  0
VERTEX
  5
156
330
152
100
AcDbEntity
  8
0
 62
     0
100
AcDbVertex
100
AcDbPolyFaceMeshVertex
 10
11.89999999999996
 20
0.0000000000000011
 30
103.7437377103551
 70
   192
  0
VERTEX
  5
157
330
152
100
AcDbEntity
  8
0
 62
     0
100
AcDbFaceRecord
 10
0.0
 20
0.0
 30
0.0
 70
   128
 71
    -1
 72
     2
 73
     3
  0
VERTEX
  5
158
330
152
100
AcDbEntity
  8
0
 62
     0
100
AcDbFaceRecord
 10
0.0
 20
0.0
 30
0.0
 70
   128
 71
    -2
 72
     1
 73
     4
  0
SEQEND
  5
159
330
152
100
AcDbEntity
  8
0
 62
     0
  0
CIRCLE
  5
15A
330
73
100
AcDbEntity
  8
0
 62
     0
100
AcDbCircle
 10
-10.59999999999997
 20
101.4920716605155
 30
0.0000000000000011
 40
2.599999999999986
210
0.0
220
1.0
230
0.0
  0
LINE
  5
15B
330
73
100
AcDbEntity
  8
0
 62
     0
100
AcDbLine
 10
11.27292951726652
 20
0.0000000000000011
 30
104.0034788088671
 11
11.27292951726652
 21
3.5
 31
104.0034788088671
  0
CIRCLE
  5
15C
330
73
100
AcDbEntity
  8
0
 62
     0
100
AcDbCircle
 10
-10.59999999999997
 20
101.4920716605155
 30
3.5
 40
2.599999999999986
210
0.0
220
1.0
230
0.0
  0
LINE
  5
15D
330
73
100
AcDbEntity
  8
0
 62
     0
100
AcDbLine
 10
11.89999999999996
 20
0.0000000000000011
 30
103.7437377103551
 11
11.89999999999996
 21
3.5
 31
103.7437377103551
  0
POLYLINE
  5
15E
330
73
100
AcDbEntity
  8
0
 62
     0
100
AcDbPolyFaceMesh
 66
     1
 10
0.0
 20
0.0
 30
0.0
 70
    64
 71
     4
 72
     2
1001
ACAD_MATERIAL_MAPPER
1070
     1
1070
     1
1070
     1
1011
13.65109841562569
1021
0.0
1031
0.0
1011
13.65109841562569
1021
-2.54
1031
0.0
1011
11.13282846773621
1021
0.0
1031
0.0
1011
13.65109841562569
1021
0.0
1031
1.0
  0
VERTEX
  5
15F
330
15E
100
AcDbEntity
  8
0
 62
     0
100
AcDbVertex
100
AcDbPolyFaceMeshVertex
 10
11.27292951726652
 20
3.5
 30
104.0034788088671
 70
   192
  0
VERTEX
  5
160
330
15E
100
AcDbEntity
  8
0
 62
     0
100
AcDbVertex
100
AcDbPolyFaceMeshVertex
 10
10.59999999999997
 20
0.0000000000000011
 30
104.0920716605155
 70
   192
  0
VERTEX
  5
161
330
15E
100
AcDbEntity
  8
0
 62
     0
100
AcDbVertex
100
AcDbPolyFaceMeshVertex
 10
10.59999999999997
 20
3.5
 30
104.0920716605155
 70
   192
  0
VERTEX
  5
162
330
15E
100
AcDbEntity
  8
0
 62
     0
100
AcDbVertex
100
AcDbPolyFaceMeshVertex
 10
11.27292951726652
 20
0.0000000000000011
 30
104.0034788088671
 70
   192
  0
VERTEX
  5
163
330
15E
100
AcDbEntity
  8
0
 62
     0
100
AcDbFaceRecord
 10
0.0
 20
0.0
 30
0.0
 70
   128
 71
    -1
 72
     2
 73
     3
  0
VERTEX
  5
164
330
15E
100
AcDbEntity
  8
0
 62
     0
100
AcDbFaceRecord
 10
0.0
 20
0.0
 30
0.0
 70
   128
 71
    -2
 72
     1
 73
     4
  0
SEQEND
  5
165
330
15E
100
AcDbEntity
  8
0
 62
     0
  0
CIRCLE
  5
166
330
73
100
AcDbEntity
  8
0
 62
     0
100
AcDbCircle
 10
-10.59999999999997
 20
101.4920716605155
 30
0.0000000000000011
 40
2.599999999999986
210
0.0
220
1.0
230
0.0
  0
LINE
  5
167
330
73
100
AcDbEntity
  8
0
 62
     0
100
AcDbLine
 10
10.59999999999997
 20
0.0000000000000011
 30
104.0920716605155
 11
10.59999999999997
 21
3.5
 31
104.0920716605155
  0
CIRCLE
  5
168
330
73
100
AcDbEntity
  8
0
 62
     0
100
AcDbCircle
 10
-10.59999999999997
 20
101.4920716605155
 30
3.5
 40
2.599999999999986
210
0.0
220
1.0
230
0.0
  0
LINE
  5
169
330
73
100
AcDbEntity
  8
0
 62
     0
100
AcDbLine
 10
11.27292951726652
 20
0.0000000000000011
 30
104.0034788088671
 11
11.27292951726652
 21
3.5
 31
104.0034788088671
  0
POLYLINE
  5
16A
330
73
100
AcDbEntity
  8
0
 62
     0
100
AcDbPolyFaceMesh
 66
     1
 10
0.0
 20
0.0
 30
0.0
 70
    64
 71
     4
 72
     2
1001
ACAD_MATERIAL_MAPPER
1070
     1
1070
     1
1070
     1
1011
-13.2899121742897
1021
0.0
1031
0.0
1011
-13.2899121742897
1021
2.54
1031
0.0
1011
-10.77164222640024
1021
0.0
1031
0.0
1011
-13.2899121742897
1021
0.0
1031
1.0
  0
VERTEX
  5
16B
330
16A
100
AcDbEntity
  8
0
 62
     0
100
AcDbVertex
100
AcDbPolyFaceMeshVertex
 10
10.59999999999997
 20
3.5
 30
104.0920716605155
 70
   192
  0
VERTEX
  5
16C
330
16A
100
AcDbEntity
  8
0
 62
     0
100
AcDbVertex
100
AcDbPolyFaceMeshVertex
 10
9.92707048273342
 20
0.0000000000000011
 30
104.0034788088671
 70
   192
  0
VERTEX
  5
16D
330
16A
100
AcDbEntity
  8
0
 62
     0
100
AcDbVertex
100
AcDbPolyFaceMeshVertex
 10
9.92707048273342
 20
3.5
 30
104.0034788088671
 70
   192
  0
VERTEX
  5
16E
330
16A
100
AcDbEntity
  8
0
 62
     0
100
AcDbVertex
100
AcDbPolyFaceMeshVertex
 10
10.59999999999997
 20
0.0000000000000011
 30
104.0920716605155
 70
   192
  0
VERTEX
  5
16F
330
16A
100
AcDbEntity
  8
0
 62
     0
100
AcDbFaceRecord
 10
0.0
 20
0.0
 30
0.0
 70
   128
 71
    -1
 72
     2
 73
     3
  0
VERTEX
  5
170
330
16A
100
AcDbEntity
  8
0
 62
     0
100
AcDbFaceRecord
 10
0.0
 20
0.0
 30
0.0
 70
   128
 71
    -2
 72
     1
 73
     4
  0
SEQEND
  5
171
330
16A
100
AcDbEntity
  8
0
 62
     0
  0
CIRCLE
  5
172
330
73
100
AcDbEntity
  8
0
 62
     0
100
AcDbCircle
 10
-10.59999999999997
 20
101.4920716605155
 30
0.0000000000000011
 40
2.599999999999986
210
0.0
220
1.0
230
0.0
  0
LINE
  5
173
330
73
100
AcDbEntity
  8
0
 62
     0
100
AcDbLine
 10
9.92707048273342
 20
0.0000000000000011
 30
104.0034788088671
 11
9.92707048273342
 21
3.5
 31
104.0034788088671
  0
CIRCLE
  5
174
330
73
100
AcDbEntity
  8
0
 62
     0
100
AcDbCircle
 10
-10.59999999999997
 20
101.4920716605155
 30
3.5
 40
2.599999999999986
210
0.0
220
1.0
230
0.0
  0
LINE
  5
175
330
73
100
AcDbEntity
  8
0
 62
     0
100
AcDbLine
 10
10.59999999999997
 20
0.0000000000000011
 30
104.0920716605155
 11
10.59999999999997
 21
3.5
 31
104.0920716605155
  0
POLYLINE
  5
176
330
73
100
AcDbEntity
  8
0
 62
     0
100
AcDbPolyFaceMesh
 66
     1
 10
0.0
 20
0.0
 30
0.0
 70
    64
 71
     4
 72
     2
1001
ACAD_MATERIAL_MAPPER
1070
     1
1070
     1
1070
     1
1011
-35.31699675283281
1021
0.0
1031
0.0
1011
-35.31699675283281
1021
2.54
1031
0.0
1011
-32.97034274025414
1021
0.0
1031
0.0
1011
-35.31699675283281
1021
0.0
1031
1.0
  0
VERTEX
  5
177
330
176
100
AcDbEntity
  8
0
 62
     0
100
AcDbVertex
100
AcDbPolyFaceMeshVertex
 10
9.92707048273342
 20
3.5
 30
104.0034788088671
 70
   192
  0
VERTEX
  5
178
330
176
100
AcDbEntity
  8
0
 62
     0
100
AcDbVertex
100
AcDbPolyFaceMeshVertex
 10
9.29999999999998
 20
0.0000000000000011
 30
103.7437377103551
 70
   192
  0
VERTEX
  5
179
330
176
100
AcDbEntity
  8
0
 62
     0
100
AcDbVertex
100
AcDbPolyFaceMeshVertex
 10
9.29999999999998
 20
3.5
 30
103.7437377103551
 70
   192
  0
VERTEX
  5
17A
330
176
100
AcDbEntity
  8
0
 62
     0
100
AcDbVertex
100
AcDbPolyFaceMeshVertex
 10
9.92707048273342
 20
0.0000000000000011
 30
104.0034788088671
 70
   192
  0
VERTEX
  5
17B
330
176
100
AcDbEntity
  8
0
 62
     0
100
AcDbFaceRecord
 10
0.0
 20
0.0
 30
0.0
 70
   128
 71
    -1
 72
     2
 73
     3
  0
VERTEX
  5
17C
330
176
100
AcDbEntity
  8
0
 62
     0
100
AcDbFaceRecord
 10
0.0
 20
0.0
 30
0.0
 70
   128
 71
    -2
 72
     1
 73
     4
  0
SEQEND
  5
17D
330
176
100
AcDbEntity
  8
0
 62
     0
  0
CIRCLE
  5
17E
330
73
100
AcDbEntity
  8
0
 62
     0
100
AcDbCircle
 10
-10.59999999999997
 20
101.4920716605155
 30
0.0000000000000011
 40
2.599999999999986
210
0.0
220
1.0
230
0.0
  0
LINE
  5
17F
330
73
100
AcDbEntity
  8
0
 62
     0
100
AcDbLine
 10
9.29999999999998
 20
0.0000000000000011
 30
103.7437377103551
 11
9.29999999999998
 21
3.5
 31
103.7437377103551
  0
CIRCLE
  5
180
330
73
100
AcDbEntity
  8
0
 62
     0
100
AcDbCircle
 10
-10.59999999999997
 20
101.4920716605155
 30
3.5
 40
2.599999999999986
210
0.0
220
1.0
230
0.0
  0
LINE
  5
181
330
73
100
AcDbEntity
  8
0
 62
     0
100
AcDbLine
 10
9.92707048273342
 20
0.0000000000000011
 30
104.0034788088671
 11
9.92707048273342
 21
3.5
 31
104.0034788088671
  0
POLYLINE
  5
182
330
73
100
AcDbEntity
  8
0
 62
     0
100
AcDbPolyFaceMesh
 66
     1
 10
0.0
 20
0.0
 30
0.0
 70
    64
 71
     4
 72
     2
1001
ACAD_MATERIAL_MAPPER
1070
     1
1070
     1
1070
     1
1011
-46.65788634482255
1021
0.0
1031
0.0
1011
-46.65788634482255
1021
2.54
1031
0.0
1011
-44.64276886048277
1021
0.0
1031
0.0
1011
-46.65788634482255
1021
0.0
1031
1.0
  0
VERTEX
  5
183
330
182
100
AcDbEntity
  8
0
 62
     0
100
AcDbVertex
100
AcDbPolyFaceMeshVertex
 10
9.29999999999998
 20
3.5
 30
103.7437377103551
 70
   192
  0
VERTEX
  5
184
330
182
100
AcDbEntity
  8
0
 62
     0
100
AcDbVertex
100
AcDbPolyFaceMeshVertex
 10
8.761522368914935
 20
0.0000000000000011
 30
103.3305492916006
 70
   192
  0
VERTEX
  5
185
330
182
100
AcDbEntity
  8
0
 62
     0
100
AcDbVertex
100
AcDbPolyFaceMeshVertex
 10
8.761522368914935
 20
3.5
 30
103.3305492916006
 70
   192
  0
VERTEX
  5
186
330
182
100
AcDbEntity
  8
0
 62
     0
100
AcDbVertex
100
AcDbPolyFaceMeshVertex
 10
9.29999999999998
 20
0.0000000000000011
 30
103.7437377103551
 70
   192
  0
VERTEX
  5
187
330
182
100
AcDbEntity
  8
0
 62
     0
100
AcDbFaceRecord
 10
0.0
 20
0.0
 30
0.0
 70
   128
 71
    -1
 72
     2
 73
     3
  0
VERTEX
  5
188
330
182
100
AcDbEntity
  8
0
 62
     0
100
AcDbFaceRecord
 10
0.0
 20
0.0
 30
0.0
 70
   128
 71
    -2
 72
     1
 73
     4
  0
SEQEND
  5
189
330
182
100
AcDbEntity
  8
0
 62
     0
  0
CIRCLE
  5
18A
330
73
100
AcDbEntity
  8
0
 62
     0
100
AcDbCircle
 10
-10.59999999999997
 20
101.4920716605155
 30
0.0000000000000011
 40
2.599999999999986
210
0.0
220
1.0
230
0.0
  0
LINE
  5
18B
330
73
100
AcDbEntity
  8
0
 62
     0
100
AcDbLine
 10
8.761522368914935
 20
0.0000000000000011
 30
103.3305492916006
 11
8.761522368914935
 21
3.5
 31
103.3305492916006
  0
CIRCLE
  5
18C
330
73
100
AcDbEntity
  8
0
 62
     0
100
AcDbCircle
 10
-10.59999999999997
 20
101.4920716605155
 30
3.5
 40
2.599999999999986
210
0.0
220
1.0
230
0.0
  0
LINE
  5
18D
330
73
100
AcDbEntity
  8
0
 62
     0
100
AcDbLine
 10
9.29999999999998
 20
0.0000000000000011
 30
103.7437377103551
 11
9.29999999999998
 21
3.5
 31
103.7437377103551
  0
POLYLINE
  5
18E
330
73
100
AcDbEntity
  8
0
 62
     0
100
AcDbPolyFaceMesh
 66
     1
 10
0.0
 20
0.0
 30
0.0
 70
    64
 71
     4
 72
     2
1001
ACAD_MATERIAL_MAPPER
1070
     1
1070
     1
1070
     1
1011
0.0
1021
0.0
1031
34.06182723014245
1011
0.0
1021
2.54
1031
34.06182723014245
1011
0.0
1021
0.0
1031
36.07694471448221
1011
1.0
1021
0.0
1031
34.06182723014245
  0
VERTEX
  5
18F
330
18E
100
AcDbEntity
  8
0
 62
     0
100
AcDbVertex
100
AcDbPolyFaceMeshVertex
 10
8.348333950160418
 20
3.5
 30
102.7920716605155
 70
   192
  0
VERTEX
  5
190
330
18E
100
AcDbEntity
  8
0
 62
     0
100
AcDbVertex
100
AcDbPolyFaceMeshVertex
 10
8.761522368914935
 20
0.0000000000000011
 30
103.3305492916006
 70
   192
  0
VERTEX
  5
191
330
18E
100
AcDbEntity
  8
0
 62
     0
100
AcDbVertex
100
AcDbPolyFaceMeshVertex
 10
8.348333950160418
 20
0.0000000000000011
 30
102.7920716605155
 70
   192
  0
VERTEX
  5
192
330
18E
100
AcDbEntity
  8
0
 62
     0
100
AcDbVertex
100
AcDbPolyFaceMeshVertex
 10
8.761522368914935
 20
3.5
 30
103.3305492916006
 70
   192
  0
VERTEX
  5
193
330
18E
100
AcDbEntity
  8
0
 62
     0
100
AcDbFaceRecord
 10
0.0
 20
0.0
 30
0.0
 70
   128
 71
    -1
 72
     2
 73
     3
  0
VERTEX
  5
194
330
18E
100
AcDbEntity
  8
0
 62
     0
100
AcDbFaceRecord
 10
0.0
 20
0.0
 30
0.0
 70
   128
 71
    -2
 72
     1
 73
     4
  0
SEQEND
  5
195
330
18E
100
AcDbEntity
  8
0
 62
     0
  0
CIRCLE
  5
196
330
73
100
AcDbEntity
  8
0
 62
     0
100
AcDbCircle
 10
-10.59999999999997
 20
101.4920716605155
 30
0.0000000000000011
 40
2.599999999999986
210
0.0
220
1.0
230
0.0
  0
LINE
  5
197
330
73
100
AcDbEntity
  8
0
 62
     0
100
AcDbLine
 10
8.348333950160418
 20
0.0000000000000011
 30
102.7920716605155
 11
8.348333950160418
 21
3.5
 31
102.7920716605155
  0
CIRCLE
  5
198
330
73
100
AcDbEntity
  8
0
 62
     0
100
AcDbCircle
 10
-10.59999999999997
 20
101.4920716605155
 30
3.5
 40
2.599999999999986
210
0.0
220
1.0
230
0.0
  0
LINE
  5
199
330
73
100
AcDbEntity
  8
0
 62
     0
100
AcDbLine
 10
8.761522368914935
 20
0.0000000000000011
 30
103.3305492916006
 11
8.761522368914935
 21
3.5
 31
103.3305492916006
  0
POLYLINE
  5
19A
330
73
100
AcDbEntity
  8
0
 62
     0
100
AcDbPolyFaceMesh
 66
     1
 10
0.0
 20
0.0
 30
0.0
 70
    64
 71
     4
 72
     2
1001
ACAD_MATERIAL_MAPPER
1070
     1
1070
     1
1070
     1
1011
0.0
1021
0.0
1031
12.1019685946893
1011
0.0
1021
2.54
1031
12.1019685946893
1011
0.0
1021
0.0
1031
14.44862260726798
1011
1.0
1021
0.0
1031
12.1019685946893
  0
VERTEX
  5
19B
330
19A
100
AcDbEntity
  8
0
 62
     0
100
AcDbVertex
100
AcDbPolyFaceMeshVertex
 10
8.088592851648382
 20
3.5
 30
102.1650011777821
 70
   192
  0
VERTEX
  5
19C
330
19A
100
AcDbEntity
  8
0
 62
     0
100
AcDbVertex
100
AcDbPolyFaceMeshVertex
 10
8.348333950160418
 20
0.0000000000000011
 30
102.7920716605155
 70
   192
  0
VERTEX
  5
19D
330
19A
100
AcDbEntity
  8
0
 62
     0
100
AcDbVertex
100
AcDbPolyFaceMeshVertex
 10
8.088592851648382
 20
0.0000000000000011
 30
102.1650011777821
 70
   192
  0
VERTEX
  5
19E
330
19A
100
AcDbEntity
  8
0
 62
     0
100
AcDbVertex
100
AcDbPolyFaceMeshVertex
 10
8.348333950160418
 20
3.5
 30
102.7920716605155
 70
   192
  0
VERTEX
  5
19F
330
19A
100
AcDbEntity
  8
0
 62
     0
100
AcDbFaceRecord
 10
0.0
 20
0.0
 30
0.0
 70
   128
 71
    -1
 72
     2
 73
     3
  0
VERTEX
  5
1A0
330
19A
100
AcDbEntity
  8
0
 62
     0
100
AcDbFaceRecord
 10
0.0
 20
0.0
 30
0.0
 70
   128
 71
    -2
 72
     1
 73
     4
  0
SEQEND
  5
1A1
330
19A
100
AcDbEntity
  8
0
 62
     0
  0
CIRCLE
  5
1A2
330
73
100
AcDbEntity
  8
0
 62
     0
100
AcDbCircle
 10
-10.59999999999997
 20
101.4920716605155
 30
0.0000000000000011
 40
2.599999999999986
210
0.0
220
1.0
230
0.0
  0
LINE
  5
1A3
330
73
100
AcDbEntity
  8
0
 62
     0
100
AcDbLine
 10
8.088592851648382
 20
0.0000000000000011
 30
102.1650011777821
 11
8.088592851648382
 21
3.5
 31
102.1650011777821
  0
CIRCLE
  5
1A4
330
73
100
AcDbEntity
  8
0
 62
     0
100
AcDbCircle
 10
-10.59999999999997
 20
101.4920716605155
 30
3.5
 40
2.599999999999986
210
0.0
220
1.0
230
0.0
  0
LINE
  5
1A5
330
73
100
AcDbEntity
  8
0
 62
     0
100
AcDbLine
 10
8.348333950160418
 20
0.0000000000000011
 30
102.7920716605155
 11
8.348333950160418
 21
3.5
 31
102.7920716605155
  0
POLYLINE
  5
1A6
330
73
100
AcDbEntity
  8
0
 62
     0
100
AcDbPolyFaceMesh
 66
     1
 10
0.0
 20
0.0
 30
0.0
 70
    64
 71
     4
 72
     2
1001
ACAD_MATERIAL_MAPPER
1070
     1
1070
     1
1070
     1
1011
0.0
1021
0.0
1031
0.6938530596100461
1011
0.0
1021
2.54
1031
0.6938530596100461
1011
0.0
1021
0.0
1031
3.212123007499546
1011
1.0
1021
0.0
1031
0.6938530596100461
  0
VERTEX
  5
1A7
330
1A6
100
AcDbEntity
  8
0
 62
     0
100
AcDbVertex
100
AcDbPolyFaceMeshVertex
 10
7.999999999999986
 20
3.5
 30
101.4920716605155
 70
   192
  0
VERTEX
  5
1A8
330
1A6
100
AcDbEntity
  8
0
 62
     0
100
AcDbVertex
100
AcDbPolyFaceMeshVertex
 10
8.088592851648382
 20
0.0000000000000011
 30
102.1650011777821
 70
   192
  0
VERTEX
  5
1A9
330
1A6
100
AcDbEntity
  8
0
 62
     0
100
AcDbVertex
100
AcDbPolyFaceMeshVertex
 10
7.999999999999986
 20
0.0000000000000011
 30
101.4920716605155
 70
   192
  0
VERTEX
  5
1AA
330
1A6
100
AcDbEntity
  8
0
 62
     0
100
AcDbVertex
100
AcDbPolyFaceMeshVertex
 10
8.088592851648382
 20
3.5
 30
102.1650011777821
 70
   192
  0
VERTEX
  5
1AB
330
1A6
100
AcDbEntity
  8
0
 62
     0
100
AcDbFaceRecord
 10
0.0
 20
0.0
 30
0.0
 70
   128
 71
    -1
 72
     2
 73
     3
  0
VERTEX
  5
1AC
330
1A6
100
AcDbEntity
  8
0
 62
     0
100
AcDbFaceRecord
 10
0.0
 20
0.0
 30
0.0
 70
   128
 71
    -2
 72
     1
 73
     4
  0
SEQEND
  5
1AD
330
1A6
100
AcDbEntity
  8
0
 62
     0
  0
CIRCLE
  5
1AE
330
73
100
AcDbEntity
  8
0
 62
     0
100
AcDbCircle
 10
-10.59999999999997
 20
101.4920716605155
 30
0.0000000000000011
 40
2.599999999999986
210
0.0
220
1.0
230
0.0
  0
LINE
  5
1AF
330
73
100
AcDbEntity
  8
0
 62
     0
100
AcDbLine
 10
7.999999999999986
 20
0.0000000000000011
 30
101.4920716605155
 11
7.999999999999986
 21
3.5
 31
101.4920716605155
  0
CIRCLE
  5
1B0
330
73
100
AcDbEntity
  8
0
 62
     0
100
AcDbCircle
 10
-10.59999999999997
 20
101.4920716605155
 30
3.5
 40
2.599999999999986
210
0.0
220
1.0
230
0.0
  0
LINE
  5
1B1
330
73
100
AcDbEntity
  8
0
 62
     0
100
AcDbLine
 10
8.088592851648382
 20
0.0000000000000011
 30
102.1650011777821
 11
8.088592851648382
 21
3.5
 31
102.1650011777821
  0
POLYLINE
  5
1B2
330
73
100
AcDbEntity
  8
0
 62
     0
100
AcDbPolyFaceMesh
 66
     1
 10
0.0
 20
0.0
 30
0.0
 70
    64
 71
     4
 72
     2
1001
ACAD_MATERIAL_MAPPER
1070
     1
1070
     1
1070
     1
1011
0.0
1021
0.0
1031
2.764405420430229
1011
0.0
1021
2.54
1031
2.764405420430229
1011
0.0
1021
0.0
1031
5.28267536831973
1011
1.0
1021
0.0
1031
2.764405420430229
  0
VERTEX
  5
1B3
330
1B2
100
AcDbEntity
  8
0
 62
     0
100
AcDbVertex
100
AcDbPolyFaceMeshVertex
 10
8.088592851648382
 20
3.5
 30
100.819142143249
 70
   192
  0
VERTEX
  5
1B4
330
1B2
100
AcDbEntity
  8
0
 62
     0
100
AcDbVertex
100
AcDbPolyFaceMeshVertex
 10
7.999999999999986
 20
0.0000000000000011
 30
101.4920716605155
 70
   192
  0
VERTEX
  5
1B5
330
1B2
100
AcDbEntity
  8
0
 62
     0
100
AcDbVertex
100
AcDbPolyFaceMeshVertex
 10
8.088592851648382
 20
0.0000000000000011
 30
100.819142143249
 70
   192
  0
VERTEX
  5
1B6
330
1B2
100
AcDbEntity
  8
0
 62
     0
100
AcDbVertex
100
AcDbPolyFaceMeshVertex
 10
7.999999999999986
 20
3.5
 30
101.4920716605155
 70
   192
  0
VERTEX
  5
1B7
330
1B2
100
AcDbEntity
  8
0
 62
     0
100
AcDbFaceRecord
 10
0.0
 20
0.0
 30
0.0
 70
   128
 71
    -1
 72
     2
 73
     3
  0
VERTEX
  5
1B8
330
1B2
100
AcDbEntity
  8
0
 62
     0
100
AcDbFaceRecord
 10
0.0
 20
0.0
 30
0.0
 70
   128
 71
    -2
 72
     1
 73
     4
  0
SEQEND
  5
1B9
330
1B2
100
AcDbEntity
  8
0
 62
     0
  0
CIRCLE
  5
1BA
330
73
100
AcDbEntity
  8
0
 62
     0
100
AcDbCircle
 10
-10.59999999999997
 20
101.4920716605155
 30
0.0000000000000011
 40
2.599999999999986
210
0.0
220
1.0
230
0.0
  0
LINE
  5
1BB
330
73
100
AcDbEntity
  8
0
 62
     0
100
AcDbLine
 10
8.088592851648382
 20
0.0000000000000011
 30
100.819142143249
 11
8.088592851648382
 21
3.5
 31
100.819142143249
  0
CIRCLE
  5
1BC
330
73
100
AcDbEntity
  8
0
 62
     0
100
AcDbCircle
 10
-10.59999999999997
 20
101.4920716605155
 30
3.5
 40
2.599999999999986
210
0.0
220
1.0
230
0.0
  0
LINE
  5
1BD
330
73
100
AcDbEntity
  8
0
 62
     0
100
AcDbLine
 10
7.999999999999986
 20
0.0000000000000011
 30
101.4920716605155
 11
7.999999999999986
 21
3.5
 31
101.4920716605155
  0
POLYLINE
  5
1BE
330
73
100
AcDbEntity
  8
0
 62
     0
100
AcDbPolyFaceMesh
 66
     1
 10
0.0
 20
0.0
 30
0.0
 70
    64
 71
     4
 72
     2
1001
ACAD_MATERIAL_MAPPER
1070
     1
1070
     1
1070
     1
1011
0.0
1021
0.0
1031
17.62437095800217
1011
0.0
1021
2.54
1031
17.62437095800217
1011
0.0
1021
0.0
1031
19.97102497058085
1011
1.0
1021
0.0
1031
17.62437095800217
  0
VERTEX
  5
1BF
330
1BE
100
AcDbEntity
  8
0
 62
     0
100
AcDbVertex
100
AcDbPolyFaceMeshVertex
 10
8.348333950160418
 20
3.5
 30
100.1920716605156
 70
   192
  0
VERTEX
  5
1C0
330
1BE
100
AcDbEntity
  8
0
 62
     0
100
AcDbVertex
100
AcDbPolyFaceMeshVertex
 10
8.088592851648382
 20
0.0000000000000011
 30
100.819142143249
 70
   192
  0
VERTEX
  5
1C1
330
1BE
100
AcDbEntity
  8
0
 62
     0
100
AcDbVertex
100
AcDbPolyFaceMeshVertex
 10
8.348333950160418
 20
0.0000000000000011
 30
100.1920716605156
 70
   192
  0
VERTEX
  5
1C2
330
1BE
100
AcDbEntity
  8
0
 62
     0
100
AcDbVertex
100
AcDbPolyFaceMeshVertex
 10
8.088592851648382
 20
3.5
 30
100.819142143249
 70
   192
  0
VERTEX
  5
1C3
330
1BE
100
AcDbEntity
  8
0
 62
     0
100
AcDbFaceRecord
 10
0.0
 20
0.0
 30
0.0
 70
   128
 71
    -1
 72
     2
 73
     3
  0
VERTEX
  5
1C4
330
1BE
100
AcDbEntity
  8
0
 62
     0
100
AcDbFaceRecord
 10
0.0
 20
0.0
 30
0.0
 70
   128
 71
    -2
 72
     1
 73
     4
  0
SEQEND
  5
1C5
330
1BE
100
AcDbEntity
  8
0
 62
     0
  0
CIRCLE
  5
1C6
330
73
100
AcDbEntity
  8
0
 62
     0
100
AcDbCircle
 10
-10.59999999999997
 20
101.4920716605155
 30
0.0000000000000011
 40
2.599999999999986
210
0.0
220
1.0
230
0.0
  0
LINE
  5
1C7
330
73
100
AcDbEntity
  8
0
 62
     0
100
AcDbLine
 10
8.348333950160418
 20
0.0000000000000011
 30
100.1920716605156
 11
8.348333950160418
 21
3.5
 31
100.1920716605156
  0
CIRCLE
  5
1C8
330
73
100
AcDbEntity
  8
0
 62
     0
100
AcDbCircle
 10
-10.59999999999997
 20
101.4920716605155
 30
3.5
 40
2.599999999999986
210
0.0
220
1.0
230
0.0
  0
LINE
  5
1C9
330
73
100
AcDbEntity
  8
0
 62
     0
100
AcDbLine
 10
8.088592851648382
 20
0.0000000000000011
 30
100.819142143249
 11
8.088592851648382
 21
3.5
 31
100.819142143249
  0
POLYLINE
  5
1CA
330
73
100
AcDbEntity
  8
0
 62
     0
100
AcDbPolyFaceMesh
 66
     1
 10
0.0
 20
0.0
 30
0.0
 70
    64
 71
    28
 72
    28
1001
ACAD_MATERIAL_MAPPER
1070
     1
1070
     1
1070
     1
1011
0.0
1021
0.0
1031
0.0
1011
2.54
1021
0.0
1031
0.0
1011
0.0
1021
0.0
1031
2.54
1011
0.0
1021
1.0
1031
0.0
  0
VERTEX
  5
1CB
330
1CA
100
AcDbEntity
  8
0
 62
     0
100
AcDbVertex
100
AcDbPolyFaceMeshVertex
 10
81.74999999999999
 20
0.0
 30
203.0
 70
   192
  0
VERTEX
  5
1CC
330
1CA
100
AcDbEntity
  8
0
 62
     0
100
AcDbVertex
100
AcDbPolyFaceMeshVertex
 10
-0.25
 20
0.0000000000000011
 30
0.0
 70
   192
  0
VERTEX
  5
1CD
330
1CA
100
AcDbEntity
  8
0
 62
     0
100
AcDbVertex
100
AcDbPolyFaceMeshVertex
 10
81.74999999999999
 20
0.0
 30
0.0
 70
   192
  0
VERTEX
  5
1CE
330
1CA
100
AcDbEntity
  8
0
 62
     0
100
AcDbVertex
100
AcDbPolyFaceMeshVertex
 10
12.85166604983953
 20
0.0000000000000011
 30
100.1920716605156
 70
   192
  0
VERTEX
  5
1CF
330
1CA
100
AcDbEntity
  8
0
 62
     0
100
AcDbVertex
100
AcDbPolyFaceMeshVertex
 10
12.43847763108501
 20
0.0000000000000011
 30
99.65359402943052
 70
   192
  0
VERTEX
  5
1D0
330
1CA
100
AcDbEntity
  8
0
 62
     0
100
AcDbVertex
100
AcDbPolyFaceMeshVertex
 10
11.89999999999996
 20
0.0000000000000011
 30
99.240405610676
 70
   192
  0
VERTEX
  5
1D1
330
1CA
100
AcDbEntity
  8
0
 62
     0
100
AcDbVertex
100
AcDbPolyFaceMeshVertex
 10
11.27292951726652
 20
0.0000000000000011
 30
98.98066451216397
 70
   192
  0
VERTEX
  5
1D2
330
1CA
100
AcDbEntity
  8
0
 62
     0
100
AcDbVertex
100
AcDbPolyFaceMeshVertex
 10
10.59999999999997
 20
0.0000000000000011
 30
98.89207166051555
 70
   192
  0
VERTEX
  5
1D3
330
1CA
100
AcDbEntity
  8
0
 62
     0
100
AcDbVertex
100
AcDbPolyFaceMeshVertex
 10
13.11140714835156
 20
0.0000000000000011
 30
100.819142143249
 70
   192
  0
VERTEX
  5
1D4
330
1CA
100
AcDbEntity
  8
0
 62
     0
100
AcDbVertex
100
AcDbPolyFaceMeshVertex
 10
13.19999999999996
 20
0.0000000000000011
 30
101.4920716605155
 70
   192
  0
VERTEX
  5
1D5
330
1CA
100
AcDbEntity
  8
0
 62
     0
100
AcDbVertex
100
AcDbPolyFaceMeshVertex
 10
13.11140714835156
 20
0.0000000000000011
 30
102.1650011777821
 70
   192
  0
VERTEX
  5
1D6
330
1CA
100
AcDbEntity
  8
0
 62
     0
100
AcDbVertex
100
AcDbPolyFaceMeshVertex
 10
12.85166604983953
 20
0.0000000000000011
 30
102.7920716605155
 70
   192
  0
VERTEX
  5
1D7
330
1CA
100
AcDbEntity
  8
0
 62
     0
100
AcDbVertex
100
AcDbPolyFaceMeshVertex
 10
12.43847763108501
 20
0.0000000000000011
 30
103.3305492916006
 70
   192
  0
VERTEX
  5
1D8
330
1CA
100
AcDbEntity
  8
0
 62
     0
100
AcDbVertex
100
AcDbPolyFaceMeshVertex
 10
11.89999999999996
 20
0.0000000000000011
 30
103.7437377103551
 70
   192
  0
VERTEX
  5
1D9
330
1CA
100
AcDbEntity
  8
0
 62
     0
100
AcDbVertex
100
AcDbPolyFaceMeshVertex
 10
11.27292951726652
 20
0.0000000000000011
 30
104.0034788088671
 70
   192
  0
VERTEX
  5
1DA
330
1CA
100
AcDbEntity
  8
0
 62
     0
100
AcDbVertex
100
AcDbPolyFaceMeshVertex
 10
10.59999999999997
 20
0.0000000000000011
 30
104.0920716605155
 70
   192
  0
VERTEX
  5
1DB
330
1CA
100
AcDbEntity
  8
0
 62
     0
100
AcDbVertex
100
AcDbPolyFaceMeshVertex
 10
7.999999999999986
 20
0.0000000000000011
 30
101.4920716605155
 70
   192
  0
VERTEX
  5
1DC
330
1CA
100
AcDbEntity
  8
0
 62
     0
100
AcDbVertex
100
AcDbPolyFaceMeshVertex
 10
-0.25
 20
0.0000000000000011
 30
203.0
 70
   192
  0
VERTEX
  5
1DD
330
1CA
100
AcDbEntity
  8
0
 62
     0
100
AcDbVertex
100
AcDbPolyFaceMeshVertex
 10
8.088592851648382
 20
0.0000000000000011
 30
100.819142143249
 70
   192
  0
VERTEX
  5
1DE
330
1CA
100
AcDbEntity
  8
0
 62
     0
100
AcDbVertex
100
AcDbPolyFaceMeshVertex
 10
8.348333950160418
 20
0.0000000000000011
 30
100.1920716605156
 70
   192
  0
VERTEX
  5
1DF
330
1CA
100
AcDbEntity
  8
0
 62
     0
100
AcDbVertex
100
AcDbPolyFaceMeshVertex
 10
8.761522368914935
 20
0.0000000000000011
 30
99.65359402943052
 70
   192
  0
VERTEX
  5
1E0
330
1CA
100
AcDbEntity
  8
0
 62
     0
100
AcDbVertex
100
AcDbPolyFaceMeshVertex
 10
9.29999999999998
 20
0.0000000000000011
 30
99.240405610676
 70
   192
  0
VERTEX
  5
1E1
330
1CA
100
AcDbEntity
  8
0
 62
     0
100
AcDbVertex
100
AcDbPolyFaceMeshVertex
 10
9.92707048273342
 20
0.0000000000000011
 30
98.98066451216397
 70
   192
  0
VERTEX
  5
1E2
330
1CA
100
AcDbEntity
  8
0
 62
     0
100
AcDbVertex
100
AcDbPolyFaceMeshVertex
 10
8.088592851648382
 20
0.0000000000000011
 30
102.1650011777821
 70
   192
  0
VERTEX
  5
1E3
330
1CA
100
AcDbEntity
  8
0
 62
     0
100
AcDbVertex
100
AcDbPolyFaceMeshVertex
 10
8.348333950160418
 20
0.0000000000000011
 30
102.7920716605155
 70
   192
  0
VERTEX
  5
1E4
330
1CA
100
AcDbEntity
  8
0
 62
     0
100
AcDbVertex
100
AcDbPolyFaceMeshVertex
 10
8.761522368914935
 20
0.0000000000000011
 30
103.3305492916006
 70
   192
  0
VERTEX
  5
1E5
330
1CA
100
AcDbEntity
  8
0
 62
     0
100
AcDbVertex
100
AcDbPolyFaceMeshVertex
 10
9.29999999999998
 20
0.0000000000000011
 30
103.7437377103551
 70
   192
  0
VERTEX
  5
1E6
330
1CA
100
AcDbEntity
  8
0
 62
     0
100
AcDbVertex
100
AcDbPolyFaceMeshVertex
 10
9.92707048273342
 20
0.0000000000000011
 30
104.0034788088671
 70
   192
  0
VERTEX
  5
1E7
330
1CA
100
AcDbEntity
  8
0
 62
     0
100
AcDbFaceRecord
 10
0.0
 20
0.0
 30
0.0
 70
   128
 71
    -1
 72
     2
 73
     3
  0
VERTEX
  5
1E8
330
1CA
100
AcDbEntity
  8
0
 62
     0
100
AcDbFaceRecord
 10
0.0
 20
0.0
 30
0.0
 70
   128
 71
    -2
 72
    -1
 73
    -4
  0
VERTEX
  5
1E9
330
1CA
100
AcDbEntity
  8
0
 62
     0
100
AcDbFaceRecord
 10
0.0
 20
0.0
 30
0.0
 70
   128
 71
    -2
 72
     4
 73
    -5
  0
VERTEX
  5
1EA
330
1CA
100
AcDbEntity
  8
0
 62
     0
100
AcDbFaceRecord
 10
0.0
 20
0.0
 30
0.0
 70
   128
 71
    -2
 72
     5
 73
    -6
  0
VERTEX
  5
1EB
330
1CA
100
AcDbEntity
  8
0
 62
     0
100
AcDbFaceRecord
 10
0.0
 20
0.0
 30
0.0
 70
   128
 71
    -2
 72
     6
 73
    -7
  0
VERTEX
  5
1EC
330
1CA
100
AcDbEntity
  8
0
 62
     0
100
AcDbFaceRecord
 10
0.0
 20
0.0
 30
0.0
 70
   128
 71
    -2
 72
     7
 73
    -8
  0
VERTEX
  5
1ED
330
1CA
100
AcDbEntity
  8
0
 62
     0
100
AcDbFaceRecord
 10
0.0
 20
0.0
 30
0.0
 70
   128
 71
    -4
 72
    -1
 73
     9
  0
VERTEX
  5
1EE
330
1CA
100
AcDbEntity
  8
0
 62
     0
100
AcDbFaceRecord
 10
0.0
 20
0.0
 30
0.0
 70
   128
 71
    -9
 72
    -1
 73
    10
  0
VERTEX
  5
1EF
330
1CA
100
AcDbEntity
  8
0
 62
     0
100
AcDbFaceRecord
 10
0.0
 20
0.0
 30
0.0
 70
   128
 71
   -10
 72
    -1
 73
    11
  0
VERTEX
  5
1F0
330
1CA
100
AcDbEntity
  8
0
 62
     0
100
AcDbFaceRecord
 10
0.0
 20
0.0
 30
0.0
 70
   128
 71
   -11
 72
    -1
 73
    12
  0
VERTEX
  5
1F1
330
1CA
100
AcDbEntity
  8
0
 62
     0
100
AcDbFaceRecord
 10
0.0
 20
0.0
 30
0.0
 70
   128
 71
   -12
 72
    -1
 73
    13
  0
VERTEX
  5
1F2
330
1CA
100
AcDbEntity
  8
0
 62
     0
100
AcDbFaceRecord
 10
0.0
 20
0.0
 30
0.0
 70
   128
 71
   -13
 72
    -1
 73
    14
  0
VERTEX
  5
1F3
330
1CA
100
AcDbEntity
  8
0
 62
     0
100
AcDbFaceRecord
 10
0.0
 20
0.0
 30
0.0
 70
   128
 71
   -14
 72
    -1
 73
    15
  0
VERTEX
  5
1F4
330
1CA
100
AcDbEntity
  8
0
 62
     0
100
AcDbFaceRecord
 10
0.0
 20
0.0
 30
0.0
 70
   128
 71
   -15
 72
    -1
 73
    16
  0
VERTEX
  5
1F5
330
1CA
100
AcDbEntity
  8
0
 62
     0
100
AcDbFaceRecord
 10
0.0
 20
0.0
 30
0.0
 70
   128
 71
    -2
 72
   -17
 73
    18
  0
VERTEX
  5
1F6
330
1CA
100
AcDbEntity
  8
0
 62
     0
100
AcDbFaceRecord
 10
0.0
 20
0.0
 30
0.0
 70
   128
 71
   -17
 72
    -2
 73
    19
  0
VERTEX
  5
1F7
330
1CA
100
AcDbEntity
  8
0
 62
     0
100
AcDbFaceRecord
 10
0.0
 20
0.0
 30
0.0
 70
   128
 71
   -19
 72
    -2
 73
    20
  0
VERTEX
  5
1F8
330
1CA
100
AcDbEntity
  8
0
 62
     0
100
AcDbFaceRecord
 10
0.0
 20
0.0
 30
0.0
 70
   128
 71
   -20
 72
    -2
 73
    21
  0
VERTEX
  5
1F9
330
1CA
100
AcDbEntity
  8
0
 62
     0
100
AcDbFaceRecord
 10
0.0
 20
0.0
 30
0.0
 70
   128
 71
   -21
 72
    -2
 73
    22
  0
VERTEX
  5
1FA
330
1CA
100
AcDbEntity
  8
0
 62
     0
100
AcDbFaceRecord
 10
0.0
 20
0.0
 30
0.0
 70
   128
 71
   -22
 72
    -2
 73
    23
  0
VERTEX
  5
1FB
330
1CA
100
AcDbEntity
  8
0
 62
     0
100
AcDbFaceRecord
 10
0.0
 20
0.0
 30
0.0
 70
   128
 71
   -23
 72
    -2
 73
     8
  0
VERTEX
  5
1FC
330
1CA
100
AcDbEntity
  8
0
 62
     0
100
AcDbFaceRecord
 10
0.0
 20
0.0
 30
0.0
 70
   128
 71
   -18
 72
    17
 73
   -24
  0
VERTEX
  5
1FD
330
1CA
100
AcDbEntity
  8
0
 62
     0
100
AcDbFaceRecord
 10
0.0
 20
0.0
 30
0.0
 70
   128
 71
   -18
 72
    24
 73
   -25
  0
VERTEX
  5
1FE
330
1CA
100
AcDbEntity
  8
0
 62
     0
100
AcDbFaceRecord
 10
0.0
 20
0.0
 30
0.0
 70
   128
 71
   -18
 72
    25
 73
   -26
  0
VERTEX
  5
1FF
330
1CA
100
AcDbEntity
  8
0
 62
     0
100
AcDbFaceRecord
 10
0.0
 20
0.0
 30
0.0
 70
   128
 71
   -18
 72
    26
 73
   -27
  0
VERTEX
  5
200
330
1CA
100
AcDbEntity
  8
0
 62
     0
100
AcDbFaceRecord
 10
0.0
 20
0.0
 30
0.0
 70
   128
 71
   -18
 72
    27
 73
   -28
  0
VERTEX
  5
201
330
1CA
100
AcDbEntity
  8
0
 62
     0
100
AcDbFaceRecord
 10
0.0
 20
0.0
 30
0.0
 70
   128
 71
   -18
 72
    28
 73
   -16
  0
VERTEX
  5
202
330
1CA
100
AcDbEntity
  8
0
 62
     0
100
AcDbFaceRecord
 10
0.0
 20
0.0
 30
0.0
 70
   128
 71
   -18
 72
   -16
 73
     1
  0
SEQEND
  5
203
330
1CA
100
AcDbEntity
  8
0
 62
     0
  0
LINE
  5
204
330
73
100
AcDbEntity
  8
0
 62
     0
100
AcDbLine
 10
81.74999999999999
 20
0.0
 30
203.0
 11
-0.25
 21
0.0000000000000011
 31
203.0
  0
LINE
  5
205
330
73
100
AcDbEntity
  8
0
 62
     0
100
AcDbLine
 10
-0.25
 20
0.0000000000000011
 30
0.0
 11
-0.25
 21
0.0000000000000011
 31
203.0
  0
LINE
  5
206
330
73
100
AcDbEntity
  8
0
 62
     0
100
AcDbLine
 10
81.74999999999999
 20
0.0
 30
0.0
 11
-0.25
 21
0.0000000000000011
 31
0.0
  0
LINE
  5
207
330
73
100
AcDbEntity
  8
0
 62
     0
100
AcDbLine
 10
81.74999999999999
 20
0.0
 30
0.0
 11
81.74999999999999
 21
0.0
 31
203.0
  0
CIRCLE
  5
208
330
73
100
AcDbEntity
  8
0
 62
     0
100
AcDbCircle
 10
-10.59999999999997
 20
101.4920716605155
 30
0.0000000000000011
 40
2.599999999999986
210
0.0
220
1.0
230
0.0
  0
POLYLINE
  5
209
330
73
100
AcDbEntity
  8
0
 62
     0
100
AcDbPolyFaceMesh
 66
     1
 10
0.0
 20
0.0
 30
0.0
 70
    64
 71
    28
 72
    28
1001
ACAD_MATERIAL_MAPPER
1070
     1
1070
     1
1070
     1
1011
0.000000000000004
1021
0.0
1031
0.0000000000000016
1011
-2.539999999999996
1021
0.0
1031
0.0000000000000016
1011
0.000000000000004
1021
0.0
1031
2.540000000000002
1011
0.000000000000004
1021
1.0
1031
0.0000000000000016
  0
VERTEX
  5
20A
330
209
100
AcDbEntity
  8
0
 62
     0
100
AcDbVertex
100
AcDbPolyFaceMeshVertex
 10
-0.25
 20
3.5
 30
0.0
 70
   192
  0
VERTEX
  5
20B
330
209
100
AcDbEntity
  8
0
 62
     0
100
AcDbVertex
100
AcDbPolyFaceMeshVertex
 10
8.348333950160418
 20
3.5
 30
100.1920716605156
 70
   192
  0
VERTEX
  5
20C
330
209
100
AcDbEntity
  8
0
 62
     0
100
AcDbVertex
100
AcDbPolyFaceMeshVertex
 10
81.74999999999999
 20
3.5
 30
0.0
 70
   192
  0
VERTEX
  5
20D
330
209
100
AcDbEntity
  8
0
 62
     0
100
AcDbVertex
100
AcDbPolyFaceMeshVertex
 10
8.088592851648382
 20
3.5
 30
100.819142143249
 70
   192
  0
VERTEX
  5
20E
330
209
100
AcDbEntity
  8
0
 62
     0
100
AcDbVertex
100
AcDbPolyFaceMeshVertex
 10
7.999999999999986
 20
3.5
 30
101.4920716605155
 70
   192
  0
VERTEX
  5
20F
330
209
100
AcDbEntity
  8
0
 62
     0
100
AcDbVertex
100
AcDbPolyFaceMeshVertex
 10
-0.25
 20
3.5
 30
203.0
 70
   192
  0
VERTEX
  5
210
330
209
100
AcDbEntity
  8
0
 62
     0
100
AcDbVertex
100
AcDbPolyFaceMeshVertex
 10
8.761522368914935
 20
3.5
 30
99.65359402943052
 70
   192
  0
VERTEX
  5
211
330
209
100
AcDbEntity
  8
0
 62
     0
100
AcDbVertex
100
AcDbPolyFaceMeshVertex
 10
9.29999999999998
 20
3.5
 30
99.240405610676
 70
   192
  0
VERTEX
  5
212
330
209
100
AcDbEntity
  8
0
 62
     0
100
AcDbVertex
100
AcDbPolyFaceMeshVertex
 10
9.92707048273342
 20
3.5
 30
98.98066451216397
 70
   192
  0
VERTEX
  5
213
330
209
100
AcDbEntity
  8
0
 62
     0
100
AcDbVertex
100
AcDbPolyFaceMeshVertex
 10
10.59999999999997
 20
3.5
 30
98.89207166051555
 70
   192
  0
VERTEX
  5
214
330
209
100
AcDbEntity
  8
0
 62
     0
100
AcDbVertex
100
AcDbPolyFaceMeshVertex
 10
8.088592851648382
 20
3.5
 30
102.1650011777821
 70
   192
  0
VERTEX
  5
215
330
209
100
AcDbEntity
  8
0
 62
     0
100
AcDbVertex
100
AcDbPolyFaceMeshVertex
 10
8.348333950160418
 20
3.5
 30
102.7920716605155
 70
   192
  0
VERTEX
  5
216
330
209
100
AcDbEntity
  8
0
 62
     0
100
AcDbVertex
100
AcDbPolyFaceMeshVertex
 10
8.761522368914935
 20
3.5
 30
103.3305492916006
 70
   192
  0
VERTEX
  5
217
330
209
100
AcDbEntity
  8
0
 62
     0
100
AcDbVertex
100
AcDbPolyFaceMeshVertex
 10
9.29999999999998
 20
3.5
 30
103.7437377103551
 70
   192
  0
VERTEX
  5
218
330
209
100
AcDbEntity
  8
0
 62
     0
100
AcDbVertex
100
AcDbPolyFaceMeshVertex
 10
9.92707048273342
 20
3.5
 30
104.0034788088671
 70
   192
  0
VERTEX
  5
219
330
209
100
AcDbEntity
  8
0
 62
     0
100
AcDbVertex
100
AcDbPolyFaceMeshVertex
 10
10.59999999999997
 20
3.5
 30
104.0920716605155
 70
   192
  0
VERTEX
  5
21A
330
209
100
AcDbEntity
  8
0
 62
     0
100
AcDbVertex
100
AcDbPolyFaceMeshVertex
 10
12.85166604983953
 20
3.5
 30
100.1920716605156
 70
   192
  0
VERTEX
  5
21B
330
209
100
AcDbEntity
  8
0
 62
     0
100
AcDbVertex
100
AcDbPolyFaceMeshVertex
 10
81.74999999999999
 20
3.5
 30
203.0
 70
   192
  0
VERTEX
  5
21C
330
209
100
AcDbEntity
  8
0
 62
     0
100
AcDbVertex
100
AcDbPolyFaceMeshVertex
 10
12.43847763108501
 20
3.5
 30
99.65359402943052
 70
   192
  0
VERTEX
  5
21D
330
209
100
AcDbEntity
  8
0
 62
     0
100
AcDbVertex
100
AcDbPolyFaceMeshVertex
 10
11.89999999999996
 20
3.5
 30
99.240405610676
 70
   192
  0
VERTEX
  5
21E
330
209
100
AcDbEntity
  8
0
 62
     0
100
AcDbVertex
100
AcDbPolyFaceMeshVertex
 10
11.27292951726652
 20
3.5
 30
98.98066451216397
 70
   192
  0
VERTEX
  5
21F
330
209
100
AcDbEntity
  8
0
 62
     0
100
AcDbVertex
100
AcDbPolyFaceMeshVertex
 10
13.11140714835156
 20
3.5
 30
100.819142143249
 70
   192
  0
VERTEX
  5
220
330
209
100
AcDbEntity
  8
0
 62
     0
100
AcDbVertex
100
AcDbPolyFaceMeshVertex
 10
13.19999999999996
 20
3.5
 30
101.4920716605155
 70
   192
  0
VERTEX
  5
221
330
209
100
AcDbEntity
  8
0
 62
     0
100
AcDbVertex
100
AcDbPolyFaceMeshVertex
 10
13.11140714835156
 20
3.5
 30
102.1650011777821
 70
   192
  0
VERTEX
  5
222
330
209
100
AcDbEntity
  8
0
 62
     0
100
AcDbVertex
100
AcDbPolyFaceMeshVertex
 10
12.85166604983953
 20
3.5
 30
102.7920716605155
 70
   192
  0
VERTEX
  5
223
330
209
100
AcDbEntity
  8
0
 62
     0
100
AcDbVertex
100
AcDbPolyFaceMeshVertex
 10
12.43847763108501
 20
3.5
 30
103.3305492916006
 70
   192
  0
VERTEX
  5
224
330
209
100
AcDbEntity
  8
0
 62
     0
100
AcDbVertex
100
AcDbPolyFaceMeshVertex
 10
11.89999999999996
 20
3.5
 30
103.7437377103551
 70
   192
  0
VERTEX
  5
225
330
209
100
AcDbEntity
  8
0
 62
     0
100
AcDbVertex
100
AcDbPolyFaceMeshVertex
 10
11.27292951726652
 20
3.5
 30
104.0034788088671
 70
   192
  0
VERTEX
  5
226
330
209
100
AcDbEntity
  8
0
 62
     0
100
AcDbFaceRecord
 10
0.0
 20
0.0
 30
0.0
 70
   128
 71
    -1
 72
    -2
 73
     3
  0
VERTEX
  5
227
330
209
100
AcDbEntity
  8
0
 62
     0
100
AcDbFaceRecord
 10
0.0
 20
0.0
 30
0.0
 70
   128
 71
    -2
 72
    -1
 73
     4
  0
VERTEX
  5
228
330
209
100
AcDbEntity
  8
0
 62
     0
100
AcDbFaceRecord
 10
0.0
 20
0.0
 30
0.0
 70
   128
 71
    -4
 72
    -1
 73
     5
  0
VERTEX
  5
229
330
209
100
AcDbEntity
  8
0
 62
     0
100
AcDbFaceRecord
 10
0.0
 20
0.0
 30
0.0
 70
   128
 71
    -5
 72
     1
 73
    -6
  0
VERTEX
  5
22A
330
209
100
AcDbEntity
  8
0
 62
     0
100
AcDbFaceRecord
 10
0.0
 20
0.0
 30
0.0
 70
   128
 71
    -3
 72
     2
 73
    -7
  0
VERTEX
  5
22B
330
209
100
AcDbEntity
  8
0
 62
     0
100
AcDbFaceRecord
 10
0.0
 20
0.0
 30
0.0
 70
   128
 71
    -3
 72
     7
 73
    -8
  0
VERTEX
  5
22C
330
209
100
AcDbEntity
  8
0
 62
     0
100
AcDbFaceRecord
 10
0.0
 20
0.0
 30
0.0
 70
   128
 71
    -3
 72
     8
 73
    -9
  0
VERTEX
  5
22D
330
209
100
AcDbEntity
  8
0
 62
     0
100
AcDbFaceRecord
 10
0.0
 20
0.0
 30
0.0
 70
   128
 71
    -3
 72
     9
 73
   -10
  0
VERTEX
  5
22E
330
209
100
AcDbEntity
  8
0
 62
     0
100
AcDbFaceRecord
 10
0.0
 20
0.0
 30
0.0
 70
   128
 71
    -5
 72
    -6
 73
    11
  0
VERTEX
  5
22F
330
209
100
AcDbEntity
  8
0
 62
     0
100
AcDbFaceRecord
 10
0.0
 20
0.0
 30
0.0
 70
   128
 71
   -11
 72
    -6
 73
    12
  0
VERTEX
  5
230
330
209
100
AcDbEntity
  8
0
 62
     0
100
AcDbFaceRecord
 10
0.0
 20
0.0
 30
0.0
 70
   128
 71
   -12
 72
    -6
 73
    13
  0
VERTEX
  5
231
330
209
100
AcDbEntity
  8
0
 62
     0
100
AcDbFaceRecord
 10
0.0
 20
0.0
 30
0.0
 70
   128
 71
   -13
 72
    -6
 73
    14
  0
VERTEX
  5
232
330
209
100
AcDbEntity
  8
0
 62
     0
100
AcDbFaceRecord
 10
0.0
 20
0.0
 30
0.0
 70
   128
 71
   -14
 72
    -6
 73
    15
  0
VERTEX
  5
233
330
209
100
AcDbEntity
  8
0
 62
     0
100
AcDbFaceRecord
 10
0.0
 20
0.0
 30
0.0
 70
   128
 71
   -15
 72
    -6
 73
    16
  0
VERTEX
  5
234
330
209
100
AcDbEntity
  8
0
 62
     0
100
AcDbFaceRecord
 10
0.0
 20
0.0
 30
0.0
 70
   128
 71
    -3
 72
   -17
 73
    18
  0
VERTEX
  5
235
330
209
100
AcDbEntity
  8
0
 62
     0
100
AcDbFaceRecord
 10
0.0
 20
0.0
 30
0.0
 70
   128
 71
   -17
 72
    -3
 73
    19
  0
VERTEX
  5
236
330
209
100
AcDbEntity
  8
0
 62
     0
100
AcDbFaceRecord
 10
0.0
 20
0.0
 30
0.0
 70
   128
 71
   -19
 72
    -3
 73
    20
  0
VERTEX
  5
237
330
209
100
AcDbEntity
  8
0
 62
     0
100
AcDbFaceRecord
 10
0.0
 20
0.0
 30
0.0
 70
   128
 71
   -20
 72
    -3
 73
    21
  0
VERTEX
  5
238
330
209
100
AcDbEntity
  8
0
 62
     0
100
AcDbFaceRecord
 10
0.0
 20
0.0
 30
0.0
 70
   128
 71
   -21
 72
    -3
 73
    10
  0
VERTEX
  5
239
330
209
100
AcDbEntity
  8
0
 62
     0
100
AcDbFaceRecord
 10
0.0
 20
0.0
 30
0.0
 70
   128
 71
   -18
 72
    17
 73
   -22
  0
VERTEX
  5
23A
330
209
100
AcDbEntity
  8
0
 62
     0
100
AcDbFaceRecord
 10
0.0
 20
0.0
 30
0.0
 70
   128
 71
   -18
 72
    22
 73
   -23
  0
VERTEX
  5
23B
330
209
100
AcDbEntity
  8
0
 62
     0
100
AcDbFaceRecord
 10
0.0
 20
0.0
 30
0.0
 70
   128
 71
   -18
 72
    23
 73
   -24
  0
VERTEX
  5
23C
330
209
100
AcDbEntity
  8
0
 62
     0
100
AcDbFaceRecord
 10
0.0
 20
0.0
 30
0.0
 70
   128
 71
   -18
 72
    24
 73
   -25
  0
VERTEX
  5
23D
330
209
100
AcDbEntity
  8
0
 62
     0
100
AcDbFaceRecord
 10
0.0
 20
0.0
 30
0.0
 70
   128
 71
   -18
 72
    25
 73
   -26
  0
VERTEX
  5
23E
330
209
100
AcDbEntity
  8
0
 62
     0
100
AcDbFaceRecord
 10
0.0
 20
0.0
 30
0.0
 70
   128
 71
   -18
 72
    26
 73
   -27
  0
VERTEX
  5
23F
330
209
100
AcDbEntity
  8
0
 62
     0
100
AcDbFaceRecord
 10
0.0
 20
0.0
 30
0.0
 70
   128
 71
   -18
 72
    27
 73
   -28
  0
VERTEX
  5
240
330
209
100
AcDbEntity
  8
0
 62
     0
100
AcDbFaceRecord
 10
0.0
 20
0.0
 30
0.0
 70
   128
 71
   -18
 72
    28
 73
   -16
  0
VERTEX
  5
241
330
209
100
AcDbEntity
  8
0
 62
     0
100
AcDbFaceRecord
 10
0.0
 20
0.0
 30
0.0
 70
   128
 71
   -18
 72
   -16
 73
     6
  0
SEQEND
  5
242
330
209
100
AcDbEntity
  8
0
 62
     0
  0
LINE
  5
243
330
73
100
AcDbEntity
  8
0
 62
     0
100
AcDbLine
 10
-0.25
 20
3.5
 30
0.0
 11
-0.25
 21
3.5
 31
203.0
  0
LINE
  5
244
330
73
100
AcDbEntity
  8
0
 62
     0
100
AcDbLine
 10
-0.25
 20
3.5
 30
203.0
 11
81.74999999999999
 21
3.5
 31
203.0
  0
LINE
  5
245
330
73
100
AcDbEntity
  8
0
 62
     0
100
AcDbLine
 10
81.74999999999999
 20
3.5
 30
0.0
 11
81.74999999999999
 21
3.5
 31
203.0
  0
LINE
  5
246
330
73
100
AcDbEntity
  8
0
 62
     0
100
AcDbLine
 10
-0.25
 20
3.5
 30
0.0
 11
81.74999999999999
 21
3.5
 31
0.0
  0
CIRCLE
  5
247
330
73
100
AcDbEntity
  8
0
 62
     0
100
AcDbCircle
 10
-10.59999999999997
 20
101.4920716605155
 30
3.5
 40
2.599999999999986
210
0.0
220
1.0
230
0.0
  0
ENDBLK
  5
75
330
73
100
AcDbEntity
  8
0
100
AcDbBlockEnd
  0
BLOCK
  5
77
330
76
100
AcDbEntity
  8
0
100
AcDbBlockBegin
  2
GRUPO_7
 70
     0
 10
0.0
 20
0.0
 30
0.0
  3
GRUPO_7
  1

  0
INSERT
  5
248
330
76
100
AcDbEntity
  8
0
 62
     0
100
AcDbBlockReference
 66
     1
  2
GRUPO_1
 10
0.0
 20
0.5999999999999741
 30
0.0
  0
ATTRIB
  5
249
330
248
100
AcDbEntity
  8
0
100
AcDbText
 10
0.0
 20
0.0
 30
0.0
 40
1.0
  1

100
AcDbAttribute
  2
Skp_GroupInstanceName
 70
     0
  0
SEQEND
  5
24A
330
248
100
AcDbEntity
  8
0
 62
     0
  0
ENDBLK
  5
78
330
76
100
AcDbEntity
  8
0
100
AcDbBlockEnd
  0
ENDSEC
  0
SECTION
  2
ENTITIES
  0
INSERT
  5
24B
330
1F
100
AcDbEntity
  8
0
 62
     0
100
AcDbBlockReference
 66
     1
  2
GRUPO_7
 10
-81.74999999999997
 20
-0.5999999999999766
 30
0.0
 43
-1.0
210
0.0
220
0.0
230
-1.0
  0
ATTRIB
  5
24C
330
24B
100
AcDbEntity
  8
0
100
AcDbText
 10
0.0
 20
0.0
 30
0.0
 40
1.0
  1

100
AcDbAttribute
  2
Skp_GroupInstanceName
 70
     0
  0
SEQEND
  5
24D
330
24B
100
AcDbEntity
  8
0
 62
     0
  0
ENDSEC
  0
SECTION
  2
OBJECTS
  0
DICTIONARY
  5
C
330
0
100
AcDbDictionary
  3
ACAD_GROUP
350
D
  3
ACAD_LAYOUT
350
1A
  3
ACAD_MATERIAL
350
43
  3
ACAD_MLEADERSTYLE
350
6B
  3
ACAD_MLINESTYLE
350
17
  3
ACAD_PLOTSETTINGS
350
19
  3
ACAD_SCALELIST
350
47
  3
ACAD_VISUALSTYLE
350
2A
  3
ACDBHEADERROUNDTRIPXREC
350
24E
  3
ACDBVARIABLEDICTIONARY
350
26F
  0
DICTIONARY
  5
276
330
8
100
AcDbDictionary
280
     1
  3
ACAD_XREC_ROUNDTRIP
360
277
  0
DICTIONARY
  5
D
102
{ACAD_REACTORS
330
C
102
}
330
C
100
AcDbDictionary
  0
DICTIONARY
  5
1A
102
{ACAD_REACTORS
330
C
102
}
330
C
100
AcDbDictionary
  0
DICTIONARY
  5
43
102
{ACAD_REACTORS
330
C
102
}
330
C
100
AcDbDictionary
  3
BYBLOCK
350
45
  3
BYLAYER
350
44
  3
GLOBAL
350
46
  0
DICTIONARY
  5
6B
102
{ACAD_REACTORS
330
C
102
}
330
C
100
AcDbDictionary
  3
STANDARD
350
6C
  0
DICTIONARY
  5
17
102
{ACAD_REACTORS
330
C
102
}
330
C
100
AcDbDictionary
  3
STANDARD
350
18
  0
DICTIONARY
  5
19
102
{ACAD_REACTORS
330
C
102
}
330
C
100
AcDbDictionary
  0
DICTIONARY
  5
47
102
{ACAD_REACTORS
330
C
102
}
330
C
100
AcDbDictionary
  3
A0
350
48
  3
A1
350
49
  3
A2
350
4A
  3
A3
350
4B
  3
A4
350
4C
  3
A5
350
4D
  3
A6
350
4E
  3
A7
350
4F
  3
A8
350
50
  3
A9
350
51
  3
B0
350
52
  3
B1
350
53
  3
B2
350
54
  3
B3
350
55
  3
B4
350
56
  3
B5
350
57
  3
B6
350
58
  3
B7
350
59
  3
B8
350
5A
  3
B9
350
5B
  3
C0
350
5C
  3
C1
350
5D
  3
C2
350
5E
  3
C3
350
5F
  3
C4
350
60
  3
C5
350
61
  3
C6
350
62
  3
C7
350
63
  3
C8
350
64
  3
C9
350
65
  3
D0
350
66
  3
D1
350
67
  3
D2
350
68
  0
DICTIONARY
  5
2A
102
{ACAD_REACTORS
330
C
102
}
330
C
100
AcDbDictionary
  3
2DWIREFRAME
350
2F
  3
BASIC
350
32
  3
BRIGHTEN
350
36
  3
COLORCHANGE
350
3A
  3
CONCEPTUAL
350
34
  3
DIM
350
35
  3
EDGECOLOROFF
350
3D
  3
FACEPATTERN
350
39
  3
FLAT
350
2B
  3
FLATWITHEDGES
350
2C
  3
GOURAUD
350
2D
  3
GOURAUDWITHEDGES
350
2E
  3
HIDDEN
350
31
  3
JITTEROFF
350
3B
  3
LINEPATTERN
350
38
  3
OVERHANGOFF
350
3C
  3
REALISTIC
350
33
  3
SHADED
350
42
  3
SHADED_WITH_EDGES
350
41
  3
SHADES_OF_GRAY
350
3E
  3
SKETCHY
350
3F
  3
THICKEN
350
37
  3
WIREFRAME
350
30
  3
X-RAY
350
40
  0
DICTIONARY
  5
24E
102
{ACAD_REACTORS
330
C
102
}
330
C
100
AcDbDictionary
  3
CEPSNID
350
258
  3
CEPSNTYPE
350
257
  3
DIMSTYLEDATA
350
26E
  3
FINGERPRINTGUID
350
259
  3
HYPERLINKBASE
350
251
  3
INSUNITS
350
256
  3
LAYOUTDICT
350
253
  3
LWETCUNION
350
255
  3
PLOTSETDICT
350
254
  3
PSVPSCALE
350
25B
  3
PUCSBASE
350
25E
  3
PUCSORGBACK
350
264
  3
PUCSORGBOTTOM
350
260
  3
PUCSORGFRONT
350
263
  3
PUCSORGLEFT
350
261
  3
PUCSORGRIGHT
350
262
  3
PUCSORGTOP
350
25F
  3
PUCSORTHOREF
350
25C
  3
PUCSORTHOVIEW
350
25D
  3
STYLESHEET
350
252
  3
TSTACKALIGN
350
24F
  3
TSTACKSIZE
350
250
  3
UCSBASE
350
267
  3
UCSORGBACK
350
26D
  3
UCSORGBOTTOM
350
269
  3
UCSORGFRONT
350
26C
  3
UCSORGLEFT
350
26A
  3
UCSORGRIGHT
350
26B
  3
UCSORGTOP
350
268
  3
UCSORTHOREF
350
265
  3
UCSORTHOVIEW
350
266
  3
VERSIONGUID
350
25A
  0
DICTIONARY
  5
26F
102
{ACAD_REACTORS
330
C
102
}
330
C
100
AcDbDictionary
  3
CANNOSCALE
350
278
  3
CMLEADERSTYLE
350
271
  3
CTABLESTYLE
350
270
  3
DIMASSOC
350
274
  3
HIDETEXT
350
275
  3
MSLTSCALE
350
279
  0
XRECORD
  5
277
102
{ACAD_REACTORS
330
276
102
}
330
276
100
AcDbXrecord
102
VTR_0.000_0.000_1.000_1.000_VISUALSTYLE
340
2F
102
VTR_0.000_0.000_1.000_1.000_GRIDDISPLAY
 70
     3
102
VTR_0.000_0.000_1.000_1.000_GRIDMAJOR
 70
     5
102
VTR_0.000_0.000_1.000_1.000_DEFAULTLIGHTING
280
     1
102
VTR_0.000_0.000_1.000_1.000_DEFAULTLIGHTINGTYPE
 70
     1
102
VTR_0.000_0.000_1.000_1.000_BRIGHTNESS
141
0.0
102
VTR_0.000_0.000_1.000_1.000_CONTRAST
142
0.0
  0
MATERIAL
  5
45
102
{ACAD_REACTORS
330
43
102
}
102
{ACAD_XDICTIONARY
360
27C
102
}
330
43
100
AcDbMaterial
  1
BYBLOCK
  0
MATERIAL
  5
44
102
{ACAD_REACTORS
330
43
102
}
102
{ACAD_XDICTIONARY
360
27A
102
}
330
43
100
AcDbMaterial
  1
BYLAYER
  0
MATERIAL
  5
46
102
{ACAD_REACTORS
330
43
102
}
102
{ACAD_XDICTIONARY
360
27E
102
}
330
43
100
AcDbMaterial
  1
GLOBAL
  0
ACAD_PROXY_OBJECT
  5
6C
102
{ACAD_REACTORS
330
6B
102
}
330
6B
100
AcDbProxyObject
 90
      499
 91
      505
 93
      610
310
40901902A4063FBFFFFFE056BD1B81E855B9FC0AD7A3703D0AD73F4214DD185B99185C9900AD7A3703D0AC73F90141901A02B5E8DC0F42B1CFC02B5E8DC0F42B1CFE5764000000000000300FC0
340
14
340
0
340
11
340
0
 94
        0
1001
ACAD_MLEADERVER
1070
     2
  0
MLINESTYLE
  5
18
102
{ACAD_REACTORS
330
17
102
}
330
17
100
AcDbMlineStyle
  2
Standard
 70
     0
  3

 62
   256
 51
90.0
 52
90.0
 71
     2
 49
0.5
 62
   256
  6
BYLAYER
 49
-0.5
 62
   256
  6
BYLAYER
  0
ACAD_PROXY_OBJECT
  5
48
102
{ACAD_REACTORS
330
47
102
}
330
47
100
AcDbProxyObject
 90
      499
 91
      503
 93
       41
310
903313A31580
  0
ACAD_PROXY_OBJECT
  5
49
102
{ACAD_REACTORS
330
47
102
}
330
47
100
AcDbProxyObject
 90
      499
 91
      503
 93
      105
310
903313A324000000000000004000
  0
ACAD_PROXY_OBJECT
  5
4A
102
{ACAD_REACTORS
330
47
102
}
330
47
100
AcDbProxyObject
 90
      499
 91
      503
 93
      105
310
903313A344000000000000104000
  0
ACAD_PROXY_OBJECT
  5
4B
102
{ACAD_REACTORS
330
47
102
}
330
47
100
AcDbProxyObject
 90
      499
 91
      503
 93
      105
310
903313A354000000000000144000
  0
ACAD_PROXY_OBJECT
  5
4C
102
{ACAD_REACTORS
330
47
102
}
330
47
100
AcDbProxyObject
 90
      499
 91
      503
 93
      105
310
903313A384000000000000204000
  0
ACAD_PROXY_OBJECT
  5
4D
102
{ACAD_REACTORS
330
47
102
}
330
47
100
AcDbProxyObject
 90
      499
 91
      503
 93
      113
310
904313A31304000000000000244000
  0
ACAD_PROXY_OBJECT
  5
4E
102
{ACAD_REACTORS
330
47
102
}
330
47
100
AcDbProxyObject
 90
      499
 91
      503
 93
      113
310
904313A31364000000000000304000
  0
ACAD_PROXY_OBJECT
  5
4F
102
{ACAD_REACTORS
330
47
102
}
330
47
100
AcDbProxyObject
 90
      499
 91
      503
 93
      113
310
904313A32304000000000000344000
  0
ACAD_PROXY_OBJECT
  5
50
102
{ACAD_REACTORS
330
47
102
}
330
47
100
AcDbProxyObject
 90
      499
 91
      503
 93
      113
310
904313A333040000000000003E4000
  0
ACAD_PROXY_OBJECT
  5
51
102
{ACAD_REACTORS
330
47
102
}
330
47
100
AcDbProxyObject
 90
      499
 91
      503
 93
      113
310
904313A34304000000000000444000
  0
ACAD_PROXY_OBJECT
  5
52
102
{ACAD_REACTORS
330
47
102
}
330
47
100
AcDbProxyObject
 90
      499
 91
      503
 93
      113
310
904313A35304000000000000494000
  0
ACAD_PROXY_OBJECT
  5
53
102
{ACAD_REACTORS
330
47
102
}
330
47
100
AcDbProxyObject
 90
      499
 91
      503
 93
      121
310
905313A3130304000000000000594000
  0
ACAD_PROXY_OBJECT
  5
54
102
{ACAD_REACTORS
330
47
102
}
330
47
100
AcDbProxyObject
 90
      499
 91
      503
 93
      105
310
903323A310000000000000010100
  0
ACAD_PROXY_OBJECT
  5
55
102
{ACAD_REACTORS
330
47
102
}
330
47
100
AcDbProxyObject
 90
      499
 91
      503
 93
      105
310
903343A310000000000000410100
  0
ACAD_PROXY_OBJECT
  5
56
102
{ACAD_REACTORS
330
47
102
}
330
47
100
AcDbProxyObject
 90
      499
 91
      503
 93
      105
310
903383A310000000000000810100
  0
ACAD_PROXY_OBJECT
  5
57
102
{ACAD_REACTORS
330
47
102
}
330
47
100
AcDbProxyObject
 90
      499
 91
      503
 93
      113
310
90431303A310000000000000910100
  0
ACAD_PROXY_OBJECT
  5
58
102
{ACAD_REACTORS
330
47
102
}
330
47
100
AcDbProxyObject
 90
      499
 91
      503
 93
      121
310
9053130303A310000000000001650100
  0
ACAD_PROXY_OBJECT
  5
59
102
{ACAD_REACTORS
330
47
102
}
330
47
100
AcDbProxyObject
 90
      499
 91
      503
 93
      257
310
90E312F31323822203D2031272D3022000000000000200FC000000000000284000
  0
ACAD_PROXY_OBJECT
  5
5A
102
{ACAD_REACTORS
330
47
102
}
330
47
100
AcDbProxyObject
 90
      499
 91
      503
 93
      249
310
90D312F363422203D2031272D3022000000000000240FC000000000000284000
  0
ACAD_PROXY_OBJECT
  5
5B
102
{ACAD_REACTORS
330
47
102
}
330
47
100
AcDbProxyObject
 90
      499
 91
      503
 93
      249
310
90D312F333222203D2031272D3022000000000000280FC000000000000284000
  0
ACAD_PROXY_OBJECT
  5
5C
102
{ACAD_REACTORS
330
47
102
}
330
47
100
AcDbProxyObject
 90
      499
 91
      503
 93
      249
310
90D312F313622203D2031272D30220000000000002C0FC000000000000284000
  0
ACAD_PROXY_OBJECT
  5
5D
102
{ACAD_REACTORS
330
47
102
}
330
47
100
AcDbProxyObject
 90
      499
 91
      503
 93
      249
310
90D332F333222203D2031272D30220000000000002E0FC000000000000284000
  0
ACAD_PROXY_OBJECT
  5
5E
102
{ACAD_REACTORS
330
47
102
}
330
47
100
AcDbProxyObject
 90
      499
 91
      503
 93
      241
310
90C312F3822203D2031272D3022000000000000300FC000000000000284000
  0
ACAD_PROXY_OBJECT
  5
5F
102
{ACAD_REACTORS
330
47
102
}
330
47
100
AcDbProxyObject
 90
      499
 91
      503
 93
      249
310
90D332F313622203D2031272D3022000000000000320FC000000000000284000
  0
ACAD_PROXY_OBJECT
  5
60
102
{ACAD_REACTORS
330
47
102
}
330
47
100
AcDbProxyObject
 90
      499
 91
      503
 93
      241
310
90C312F3422203D2031272D3022000000000000340FC000000000000284000
  0
ACAD_PROXY_OBJECT
  5
61
102
{ACAD_REACTORS
330
47
102
}
330
47
100
AcDbProxyObject
 90
      499
 91
      503
 93
      241
310
90C332F3822203D2031272D3022000000000000360FC000000000000284000
  0
ACAD_PROXY_OBJECT
  5
62
102
{ACAD_REACTORS
330
47
102
}
330
47
100
AcDbProxyObject
 90
      499
 91
      503
 93
      241
310
90C312F3222203D2031272D3022000000000000380FC000000000000284000
  0
ACAD_PROXY_OBJECT
  5
63
102
{ACAD_REACTORS
330
47
102
}
330
47
100
AcDbProxyObject
 90
      499
 91
      503
 93
      241
310
90C332F3422203D2031272D30220000000000003A0FC000000000000284000
  0
ACAD_PROXY_OBJECT
  5
64
102
{ACAD_REACTORS
330
47
102
}
330
47
100
AcDbProxyObject
 90
      499
 91
      503
 93
      161
310
90A3122203D2031272D30224000000000000284000
  0
ACAD_PROXY_OBJECT
  5
65
102
{ACAD_REACTORS
330
47
102
}
330
47
100
AcDbProxyObject
 90
      499
 91
      503
 93
      257
310
90E312D312F3222203D2031272D30220000000000003E0FC000000000000284000
  0
ACAD_PROXY_OBJECT
  5
66
102
{ACAD_REACTORS
330
47
102
}
330
47
100
AcDbProxyObject
 90
      499
 91
      503
 93
      225
310
90A3322203D2031272D302200000000000002100000000000000284000
  0
ACAD_PROXY_OBJECT
  5
67
102
{ACAD_REACTORS
330
47
102
}
330
47
100
AcDbProxyObject
 90
      499
 91
      503
 93
      225
310
90A3622203D2031272D302200000000000006100000000000000284000
  0
ACAD_PROXY_OBJECT
  5
68
102
{ACAD_REACTORS
330
47
102
}
330
47
100
AcDbProxyObject
 90
      499
 91
      503
 93
      249
310
90D31272D3022203D2031272D30220000000000000A100000000000000284000
  0
ACAD_PROXY_OBJECT
  5
2F
102
{ACAD_REACTORS
330
2A
102
}
330
2A
100
AcDbProxyObject
 90
      499
 91
      501
 93
      436
310
42CC9915DA5C99599C985B595049028333333333333E33F0000000000000F90107901411070040501600405405064090741402480A0340
1001
ACAD
1000
AcDbSavedByObjectVersion
1070
     0
  0
ACAD_PROXY_OBJECT
  5
32
102
{ACAD_REACTORS
330
2A
102
}
330
2A
100
AcDbProxyObject
 90
      499
 91
      501
 93
      388
310
4150985CDA58D07406404333333333333E33F0000000000000F90107A41107004050150841D405064090741402480A0350
1001
ACAD
1000
AcDbSavedByObjectVersion
1070
     0
  0
ACAD_PROXY_OBJECT
  5
36
102
{ACAD_REACTORS
330
2A
102
}
330
2A
100
AcDbProxyObject
 90
      499
 91
      501
 93
      428
310
42109C9A59DA1D195B90C409028333333333333E33F0000000000000F9010790141107004050150841D405064090741402480A029950
1001
ACAD
1000
AcDbSavedByObjectVersion
1070
     0
  0
ACAD_PROXY_OBJECT
  5
3A
102
{ACAD_REACTORS
330
2A
102
}
330
2A
100
AcDbProxyObject
 90
      499
 91
      501
 93
      452
310
42D0DBDB1BDC90DA185B99D95104090240C333333333333E33F0000000000000F90108901411070040501508421405064090741402480A0350
1001
ACAD
1000
AcDbSavedByObjectVersion
1070
     0
  0
ACAD_PROXY_OBJECT
  5
34
102
{ACAD_REACTORS
330
2A
102
}
330
2A
100
AcDbProxyObject
 90
      499
 91
      501
 93
      500
310
4290DBDB98D95C1D1D585B10940D028333333333333E33F0000000000000F90107902409070040501000000000018199010841D405064090740C02480A0340
1001
ACAD
1000
AcDbSavedByObjectVersion
1070
     0
  0
ACAD_PROXY_OBJECT
  5
35
102
{ACAD_REACTORS
330
2A
102
}
330
2A
100
AcDbProxyObject
 90
      499
 91
      501
 93
      412
310
40D11A5B50B409028333333333333E33F0000000000000F9010790141107004050150841D405064090741402480A02677FFFFFD0
1001
ACAD
1000
AcDbSavedByObjectVersion
1070
     0
  0
ACAD_PROXY_OBJECT
  5
3D
102
{ACAD_REACTORS
330
2A
102
}
330
2A
100
AcDbProxyObject
 90
      499
 91
      501
 93
      452
310
43115919D950DBDB1BDC93D999916409028333333333333E33F0000000000000F9010790141107004050150841D405064090741402480A0350
1001
ACAD
1000
AcDbSavedByObjectVersion
1070
     0
  0
ACAD_PROXY_OBJECT
  5
39
102
{ACAD_REACTORS
330
2A
102
}
330
2A
100
AcDbProxyObject
 90
      499
 91
      501
 93
      444
310
42D19858D95C185D1D195C9B90F409028333333333333E33F0000000000000F9010790141107004050150841D405064090741402480A0350
1001
ACAD
1000
AcDbSavedByObjectVersion
1070
     0
  0
ACAD_PROXY_OBJECT
  5
2B
102
{ACAD_REACTORS
330
2A
102
}
330
2A
100
AcDbProxyObject
 90
      499
 91
      501
 93
      380
310
41119B185D240901404333333333333E33F0000000000000F9010740A907004050150841D405064090741402480A1B50
1001
ACAD
1000
AcDbSavedByObjectVersion
1070
     0
  0
ACAD_PROXY_OBJECT
  5
2C
102
{ACAD_REACTORS
330
2A
102
}
330
2A
100
AcDbProxyObject
 90
      499
 91
      501
 93
      468
310
43519B185D15DA5D1A115919D95CD0140901404333333333333E33F0000000000000F90107409019070040501600405405064090741402480A1B50
1001
ACAD
1000
AcDbSavedByObjectVersion
1070
     0
  0
ACAD_PROXY_OBJECT
  5
2D
102
{ACAD_REACTORS
330
2A
102
}
330
2A
100
AcDbProxyObject
 90
      499
 91
      501
 93
      404
310
41D1DBDD5C985D5910240902404333333333333E33F0000000000000F9010740A9070040501641D405064090741402480A1B50
1001
ACAD
1000
AcDbSavedByObjectVersion
1070
     0
  0
ACAD_PROXY_OBJECT
  5
2E
102
{ACAD_REACTORS
330
2A
102
}
330
2A
100
AcDbProxyObject
 90
      499
 91
      501
 93
      492
310
4411DBDD5C985D5915DA5D1A115919D95CD0340902404333333333333E33F0000000000000F90107409019070040501600405405064090741402480A1B50
1001
ACAD
1000
AcDbSavedByObjectVersion
1070
     0
  0
ACAD_PROXY_OBJECT
  5
31
102
{ACAD_REACTORS
330
2A
102
}
330
2A
100
AcDbProxyObject
 90
      499
 91
      501
 93
      476
310
41921A5919195B90640502408333333333333E33F0000000000000F901079024090700405020000000000001110200405405064090740C02480A0340
1001
ACAD
1000
AcDbSavedByObjectVersion
1070
     0
  0
ACAD_PROXY_OBJECT
  5
3B
102
{ACAD_REACTORS
330
2A
102
}
330
2A
100
AcDbProxyObject
 90
      499
 91
      501
 93
      428
310
42529A5D1D195C93D999914409028333333333333E33F0000000000000F9010790141107004050150A41D405064090741402480A0350
1001
ACAD
1000
AcDbSavedByObjectVersion
1070
     0
  0
ACAD_PROXY_OBJECT
  5
38
102
{ACAD_REACTORS
330
2A
102
}
330
2A
100
AcDbProxyObject
 90
      499
 91
      501
 93
      444
310
42D31A5B995C185D1D195C9B90E409028333333333333E33F0000000000000F9010790141107004050750841D405064090741402483A0350
1001
ACAD
1000
AcDbSavedByObjectVersion
1070
     0
  0
ACAD_PROXY_OBJECT
  5
3C
102
{ACAD_REACTORS
330
2A
102
}
330
2A
100
AcDbProxyObject
 90
      499
 91
      501
 93
      444
310
42D3DD995C9A185B99D3D999915409028333333333333E33F0000000000000F9010790141107004050150941D405064090741402480A0350
1001
ACAD
1000
AcDbSavedByObjectVersion
1070
     0
  0
ACAD_PROXY_OBJECT
  5
33
102
{ACAD_REACTORS
330
2A
102
}
330
2A
100
AcDbProxyObject
 90
      499
 91
      501
 93
      428
310
425499585B1A5CDD1A58D08409038333333333333E33F0000000000000F9010740A907004050150800405405064090740C02480A1B40
1001
ACAD
1000
AcDbSavedByObjectVersion
1070
     0
  0
ACAD_PROXY_OBJECT
  5
42
102
{ACAD_REACTORS
330
2A
102
}
330
2A
100
AcDbProxyObject
 90
      499
 91
      501
 93
      420
310
4194DA1859195911B40902404333333333333E33F0000000000000F9010740A41107004050150800405405064090840C02480A0B40
1001
ACAD
1000
AcDbSavedByObjectVersion
1070
     0
  0
ACAD_PROXY_OBJECT
  5
41
102
{ACAD_REACTORS
330
2A
102
}
330
2A
100
AcDbProxyObject
 90
      499
 91
      501
 93
      516
310
4454DA18591959081DDA5D1A08195919D95CD1A40902404333333333333E33F0000000000000F901074090142907004050250800405405064090740C02480A0B40
1001
ACAD
1000
AcDbSavedByObjectVersion
1070
     0
  0
ACAD_PROXY_OBJECT
  5
3E
102
{ACAD_REACTORS
330
2A
102
}
330
2A
100
AcDbProxyObject
 90
      499
 91
      501
 93
      532
310
4394DA1859195CC81BD98811DC985E5174090240C333333333333E33F0000000000000F901079024090741D01000000000000111010841D405064090740C02480A0340
1001
ACAD
1000
AcDbSavedByObjectVersion
1070
     0
  0
ACAD_PROXY_OBJECT
  5
3F
102
{ACAD_REACTORS
330
2A
102
}
330
2A
100
AcDbProxyObject
 90
      499
 91
      501
 93
      476
310
41D4DAD95D18DA1E51840502408333333333333E33F0000000000000F901079024090741D01000000000000111010B41D405064090741802480A0340
1001
ACAD
1000
AcDbSavedByObjectVersion
1070
     0
  0
ACAD_PROXY_OBJECT
  5
37
102
{ACAD_REACTORS
330
2A
102
}
330
2A
100
AcDbProxyObject
 90
      499
 91
      501
 93
      412
310
41D51A1A58DAD95B90D409028333333333333E33F0000000000000F9010790141107004050150C41D405064090741402480A0350
1001
ACAD
1000
AcDbSavedByObjectVersion
1070
     0
  0
ACAD_PROXY_OBJECT
  5
30
102
{ACAD_REACTORS
330
2A
102
}
330
2A
100
AcDbProxyObject
 90
      499
 91
      501
 93
      420
310
4255DA5C99599C985B595059028333333333333E33F0000000000000F90107901411070040501600405405064090740C02480A0340
1001
ACAD
1000
AcDbSavedByObjectVersion
1070
     0
  0
ACAD_PROXY_OBJECT
  5
40
102
{ACAD_REACTORS
330
2A
102
}
330
2A
100
AcDbProxyObject
 90
      499
 91
      501
 93
      404
310
41560B54985E51940902404000000000000E03F0000000000000F9010740501907004050150841D405064090740C02480A1B40
1001
ACAD
1000
AcDbSavedByObjectVersion
1070
     0
  0
XRECORD
  5
258
102
{ACAD_REACTORS
330
24E
102
}
330
24E
100
AcDbXrecord
340
0
  0
XRECORD
  5
257
102
{ACAD_REACTORS
330
24E
102
}
330
24E
100
AcDbXrecord
 90
        0
  0
XRECORD
  5
26E
102
{ACAD_REACTORS
330
24E
102
}
330
24E
100
AcDbXrecord
1000
DSTYLE
1002
{
1070
   171
 70
     2
1070
   143
 40
25.4
1070
   274
 70
     2
1070
    41
 40
0.18
1070
   141
 40
0.09
1070
   271
 70
     4
1070
    43
 40
0.38
1070
   278
 70
    46
1070
    44
 40
0.18
1070
    42
 40
0.0625
1070
   147
 40
0.09
1070
    77
 70
     0
1070
   272
 70
     4
1070
    73
 70
     1
1070
   172
 70
     0
1070
    74
 70
     1
1070
   283
 70
     1
1070
   340
340
11
1070
   140
 40
0.18
1070
   284
 70
     0
1070
    78
 70
     0
1002
}
  0
XRECORD
  5
259
102
{ACAD_REACTORS
330
24E
102
}
330
24E
100
AcDbXrecord
  1
{f4c17135-725d-8b45-acb5-c6e29f6f939e}
  0
XRECORD
  5
251
102
{ACAD_REACTORS
330
24E
102
}
330
24E
100
AcDbXrecord
  1

  0
XRECORD
  5
256
102
{ACAD_REACTORS
330
24E
102
}
330
24E
100
AcDbXrecord
 90
        5
  0
XRECORD
  5
253
102
{ACAD_REACTORS
330
24E
102
}
330
24E
100
AcDbXrecord
340
1A
  0
XRECORD
  5
255
102
{ACAD_REACTORS
330
24E
102
}
330
24E
100
AcDbXrecord
 90
    10781
  0
XRECORD
  5
254
102
{ACAD_REACTORS
330
24E
102
}
330
24E
100
AcDbXrecord
340
19
  0
XRECORD
  5
25B
102
{ACAD_REACTORS
330
24E
102
}
330
24E
100
AcDbXrecord
 40
0.0
  0
XRECORD
  5
25E
102
{ACAD_REACTORS
330
24E
102
}
330
24E
100
AcDbXrecord
340
0
  0
XRECORD
  5
264
102
{ACAD_REACTORS
330
24E
102
}
330
24E
100
AcDbXrecord
 10
0.0
 20
0.0
 30
0.0
  0
XRECORD
  5
260
102
{ACAD_REACTORS
330
24E
102
}
330
24E
100
AcDbXrecord
 10
0.0
 20
0.0
 30
0.0
  0
XRECORD
  5
263
102
{ACAD_REACTORS
330
24E
102
}
330
24E
100
AcDbXrecord
 10
0.0
 20
0.0
 30
0.0
  0
XRECORD
  5
261
102
{ACAD_REACTORS
330
24E
102
}
330
24E
100
AcDbXrecord
 10
0.0
 20
0.0
 30
0.0
  0
XRECORD
  5
262
102
{ACAD_REACTORS
330
24E
102
}
330
24E
100
AcDbXrecord
 10
0.0
 20
0.0
 30
0.0
  0
XRECORD
  5
25F
102
{ACAD_REACTORS
330
24E
102
}
330
24E
100
AcDbXrecord
 10
0.0
 20
0.0
 30
0.0
  0
XRECORD
  5
25C
102
{ACAD_REACTORS
330
24E
102
}
330
24E
100
AcDbXrecord
340
0
  0
XRECORD
  5
25D
102
{ACAD_REACTORS
330
24E
102
}
330
24E
100
AcDbXrecord
 70
     0
  0
XRECORD
  5
252
102
{ACAD_REACTORS
330
24E
102
}
330
24E
100
AcDbXrecord
  1

  0
XRECORD
  5
24F
102
{ACAD_REACTORS
330
24E
102
}
330
24E
100
AcDbXrecord
 90
        1
  0
XRECORD
  5
250
102
{ACAD_REACTORS
330
24E
102
}
330
24E
100
AcDbXrecord
 90
       70
  0
XRECORD
  5
267
102
{ACAD_REACTORS
330
24E
102
}
330
24E
100
AcDbXrecord
340
0
  0
XRECORD
  5
26D
102
{ACAD_REACTORS
330
24E
102
}
330
24E
100
AcDbXrecord
 10
0.0
 20
0.0
 30
0.0
  0
XRECORD
  5
269
102
{ACAD_REACTORS
330
24E
102
}
330
24E
100
AcDbXrecord
 10
0.0
 20
0.0
 30
0.0
  0
XRECORD
  5
26C
102
{ACAD_REACTORS
330
24E
102
}
330
24E
100
AcDbXrecord
 10
0.0
 20
0.0
 30
0.0
  0
XRECORD
  5
26A
102
{ACAD_REACTORS
330
24E
102
}
330
24E
100
AcDbXrecord
 10
0.0
 20
0.0
 30
0.0
  0
XRECORD
  5
26B
102
{ACAD_REACTORS
330
24E
102
}
330
24E
100
AcDbXrecord
 10
0.0
 20
0.0
 30
0.0
  0
XRECORD
  5
268
102
{ACAD_REACTORS
330
24E
102
}
330
24E
100
AcDbXrecord
 10
0.0
 20
0.0
 30
0.0
  0
XRECORD
  5
265
102
{ACAD_REACTORS
330
24E
102
}
330
24E
100
AcDbXrecord
340
0
  0
XRECORD
  5
266
102
{ACAD_REACTORS
330
24E
102
}
330
24E
100
AcDbXrecord
 70
     0
  0
XRECORD
  5
25A
102
{ACAD_REACTORS
330
24E
102
}
330
24E
100
AcDbXrecord
  1
{FAEB1C32-E019-11D5-929B-00C0DF256EC4}
  0
DICTIONARYVAR
  5
278
102
{ACAD_REACTORS
330
26F
102
}
330
26F
100
DictionaryVariables
280
     0
  1
1:1
  0
DICTIONARYVAR
  5
271
102
{ACAD_REACTORS
330
26F
102
}
330
26F
100
DictionaryVariables
280
     0
  1
Standard
  0
DICTIONARYVAR
  5
270
102
{ACAD_REACTORS
330
26F
102
}
330
26F
100
DictionaryVariables
280
     0
  1
Standard
  0
DICTIONARYVAR
  5
274
102
{ACAD_REACTORS
330
26F
102
}
330
26F
100
DictionaryVariables
280
     0
  1
2
  0
DICTIONARYVAR
  5
275
102
{ACAD_REACTORS
330
26F
102
}
330
26F
100
DictionaryVariables
280
     0
  1
1
  0
DICTIONARYVAR
  5
279
102
{ACAD_REACTORS
330
26F
102
}
330
26F
100
DictionaryVariables
280
     0
  1
1
  0
DICTIONARY
  5
27C
330
45
100
AcDbDictionary
280
     1
  3
ACAD_XREC_ROUNDTRIP
360
27D
  0
DICTIONARY
  5
27A
330
44
100
AcDbDictionary
280
     1
  3
ACAD_XREC_ROUNDTRIP
360
27B
  0
DICTIONARY
  5
27E
330
46
100
AcDbDictionary
280
     1
  3
ACAD_XREC_ROUNDTRIP
360
27F
  0
XRECORD
  5
27D
102
{ACAD_REACTORS
330
27C
102
}
330
27C
100
AcDbXrecord
102
MATERIAL
148
0.0
149
0.0
149
0.0
 93
        0
 94
      127
282
     0
 72
     1
 77
     1
171
     1
175
     1
179
     1
273
     0
  0
XRECORD
  5
27B
102
{ACAD_REACTORS
330
27A
102
}
330
27A
100
AcDbXrecord
102
MATERIAL
148
0.0
149
0.0
149
0.0
 93
        0
 94
      127
282
     0
 72
     1
 77
     1
171
     1
175
     1
179
     1
273
     0
  0
XRECORD
  5
27F
102
{ACAD_REACTORS
330
27E
102
}
330
27E
100
AcDbXrecord
102
MATERIAL
148
0.0
149
0.0
149
0.0
 93
        0
 94
      127
282
     0
 72
     1
 77
     1
171
     1
175
     1
179
     1
273
     0
  0
ENDSEC
  0
EOF
