  0
SECTION
  2
HEADER
  9
$ACADVER
  1
AC1014
  9
$ACADMAINTVER
 70
     9
  9
$DWGCODEPAGE
  3
MAC-ROMAN
  9
$INSBASE
 10
0.0
 20
0.0
 30
0.0
  9
$EXTMIN
 10
1.000000000000000E+20
 20
1.000000000000000E+20
 30
1.000000000000000E+20
  9
$EXTMAX
 10
-1.000000000000000E+20
 20
-1.000000000000000E+20
 30
-1.000000000000000E+20
  9
$LIMMIN
 10
0.0
 20
0.0
  9
$LIMMAX
 10
12.0
 20
9.0
  9
$ORTHOMODE
 70
     0
  9
$REGENMODE
 70
     1
  9
$FILLMODE
 70
     1
  9
$QTEXTMODE
 70
     0
  9
$MIRRTEXT
 70
     1
  9
$DRAGMODE
 70
     2
  9
$LTSCALE
 40
2.54
  9
$OSMODE
 70
    37
  9
$ATTMODE
 70
     1
  9
$TEXTSIZE
 40
0.2
  9
$TRACEWID
 40
0.05
  9
$TEXTSTYLE
  7
STANDARD
  9
$CLAYER
  8
0
  9
$CELTYPE
  6
BYLAYER
  9
$CECOLOR
 62
   256
  9
$CELTSCALE
 40
1.0
  9
$DELOBJ
 70
     1
  9
$DISPSILH
 70
     0
  9
$DIMSCALE
 40
1.0
  9
$DIMASZ
 40
0.18
  9
$DIMEXO
 40
0.0625
  9
$DIMDLI
 40
0.38
  9
$DIMRND
 40
0.0
  9
$DIMDLE
 40
0.0
  9
$DIMEXE
 40
0.18
  9
$DIMTP
 40
0.0
  9
$DIMTM
 40
0.0
  9
$DIMTXT
 40
0.18
  9
$DIMCEN
 40
0.09
  9
$DIMTSZ
 40
0.0
  9
$DIMTOL
 70
     0
  9
$DIMLIM
 70
     0
  9
$DIMTIH
 70
     1
  9
$DIMTOH
 70
     1
  9
$DIMSE1
 70
     0
  9
$DIMSE2
 70
     0
  9
$DIMTAD
 70
     0
  9
$DIMZIN
 70
     0
  9
$DIMBLK
  1

  9
$DIMASO
 70
     1
  9
$DIMSHO
 70
     1
  9
$DIMPOST
  1

  9
$DIMAPOST
  1

  9
$DIMALT
 70
     0
  9
$DIMALTD
 70
     2
  9
$DIMALTF
 40
25.4
  9
$DIMLFAC
 40
1.0
  9
$DIMTOFL
 70
     0
  9
$DIMTVP
 40
0.0
  9
$DIMTIX
 70
     0
  9
$DIMSOXD
 70
     0
  9
$DIMSAH
 70
     0
  9
$DIMBLK1
  1

  9
$DIMBLK2
  1

  9
$DIMSTYLE
  2
STANDARD
  9
$DIMCLRD
 70
     0
  9
$DIMCLRE
 70
     0
  9
$DIMCLRT
 70
     0
  9
$DIMTFAC
 40
1.0
  9
$DIMGAP
 40
0.09
  9
$DIMJUST
 70
     0
  9
$DIMSD1
 70
     0
  9
$DIMSD2
 70
     0
  9
$DIMTOLJ
 70
     1
  9
$DIMTZIN
 70
     0
  9
$DIMALTZ
 70
     0
  9
$DIMALTTZ
 70
     0
  9
$DIMFIT
 70
     3
  9
$DIMUPT
 70
     0
  9
$DIMUNIT
 70
     2
  9
$DIMDEC
 70
     4
  9
$DIMTDEC
 70
     4
  9
$DIMALTU
 70
     2
  9
$DIMALTTD
 70
     2
  9
$DIMTXSTY
  7
STANDARD
  9
$DIMAUNIT
 70
     0
  9
$LUNITS
 70
     2
  9
$LUPREC
 70
     4
  9
$SKETCHINC
 40
0.1
  9
$FILLETRAD
 40
0.5
  9
$AUNITS
 70
     0
  9
$AUPREC
 70
     0
  9
$MENU
  1
.
  9
$ELEVATION
 40
0.0
  9
$PELEVATION
 40
0.0
  9
$THICKNESS
 40
0.0
  9
$LIMCHECK
 70
     0
  9
$CHAMFERA
 40
0.0
  9
$CHAMFERB
 40
0.0
  9
$CHAMFERC
 40
0.0
  9
$CHAMFERD
 40
0.0
  9
$SKPOLY
 70
     0
  9
$TDCREATE
 40
2460074.499330394
  9
$TDUPDATE
 40
2460074.499330937
  9
$TDINDWG
 40
0.0000000116
  9
$TDUSRTIMER
 40
0.0000000116
  9
$USRTIMER
 70
     1
  9
$ANGBASE
 50
0.0
  9
$ANGDIR
 70
     0
  9
$PDMODE
 70
     0
  9
$PDSIZE
 40
0.0
  9
$PLINEWID
 40
0.0
  9
$COORDS
 70
     1
  9
$SPLFRAME
 70
     0
  9
$SPLINETYPE
 70
     6
  9
$SPLINESEGS
 70
     8
  9
$ATTDIA
 70
     0
  9
$ATTREQ
 70
     1
  9
$HANDLING
 70
     1
  9
$HANDSEED
  5
377
  9
$SURFTAB1
 70
     6
  9
$SURFTAB2
 70
     6
  9
$SURFTYPE
 70
     6
  9
$SURFU
 70
     6
  9
$SURFV
 70
     6
  9
$UCSNAME
  2

  9
$UCSORG
 10
0.0
 20
0.0
 30
0.0
  9
$UCSXDIR
 10
1.0
 20
0.0
 30
0.0
  9
$UCSYDIR
 10
0.0
 20
1.0
 30
0.0
  9
$PUCSNAME
  2

  9
$PUCSORG
 10
0.0
 20
0.0
 30
0.0
  9
$PUCSXDIR
 10
1.0
 20
0.0
 30
0.0
  9
$PUCSYDIR
 10
0.0
 20
1.0
 30
0.0
  9
$USERI1
 70
     0
  9
$USERI2
 70
     0
  9
$USERI3
 70
     0
  9
$USERI4
 70
     0
  9
$USERI5
 70
     0
  9
$USERR1
 40
0.0
  9
$USERR2
 40
0.0
  9
$USERR3
 40
0.0
  9
$USERR4
 40
0.0
  9
$USERR5
 40
0.0
  9
$WORLDVIEW
 70
     1
  9
$SHADEDGE
 70
     3
  9
$SHADEDIF
 70
    70
  9
$TILEMODE
 70
     1
  9
$MAXACTVP
 70
    64
  9
$PINSBASE
 10
0.0
 20
0.0
 30
0.0
  9
$PLIMCHECK
 70
     0
  9
$PEXTMIN
 10
1.000000000000000E+20
 20
1.000000000000000E+20
 30
1.000000000000000E+20
  9
$PEXTMAX
 10
-1.000000000000000E+20
 20
-1.000000000000000E+20
 30
-1.000000000000000E+20
  9
$PLIMMIN
 10
0.0
 20
0.0
  9
$PLIMMAX
 10
12.0
 20
9.0
  9
$UNITMODE
 70
     0
  9
$VISRETAIN
 70
     1
  9
$PLINEGEN
 70
     0
  9
$PSLTSCALE
 70
     1
  9
$TREEDEPTH
 70
  3020
  9
$PICKSTYLE
 70
     1
  9
$CMLSTYLE
  2
STANDARD
  9
$CMLJUST
 70
     0
  9
$CMLSCALE
 40
1.0
  9
$PROXYGRAPHICS
 70
     1
  9
$MEASUREMENT
 70
     1
  0
ENDSEC
  0
SECTION
  2
CLASSES
  0
CLASS
  1
ACDBDICTIONARYWDFLT
  2
AcDbDictionaryWithDefault
  3
ObjectDBX Classes
 90
        0
280
     0
281
     0
  0
CLASS
  1
VISUALSTYLE
  2
AcDbVisualStyle
  3
ObjectDBX Classes
 90
     4095
280
     0
281
     0
  0
CLASS
  1
MATERIAL
  2
AcDbMaterial
  3
ObjectDBX Classes
 90
     1153
280
     0
281
     0
  0
CLASS
  1
SCALE
  2
AcDbScale
  3
ObjectDBX Classes
 90
     1153
280
     0
281
     0
  0
CLASS
  1
TABLESTYLE
  2
AcDbTableStyle
  3
ObjectDBX Classes
 90
     4095
280
     0
281
     0
  0
CLASS
  1
MLEADERSTYLE
  2
AcDbMLeaderStyle
  3
ACDB_MLEADERSTYLE_CLASS
 90
     4095
280
     0
281
     0
  0
CLASS
  1
SUN
  2
AcDbSun
  3
SCENEOE
 90
     1153
280
     0
281
     0
  0
CLASS
  1
CAMERA
  2
AcDbCamera
  3
ACCAMERA
 90
      195
280
     0
281
     1
  0
CLASS
  1
DICTIONARYVAR
  2
AcDbDictionaryVar
  3
ObjectDBX Classes
 90
        0
280
     0
281
     0
  0
CLASS
  1
XRECORD
  2
AcDbXrecord
  3
ObjectDBX Classes
 90
        0
280
     0
281
     0
  0
CLASS
  1
LWPOLYLINE
  2
AcDbPolyline
  3
ObjectDBX Classes
 90
        0
280
     0
281
     1
  0
CLASS
  1
HATCH
  2
AcDbHatch
  3
ObjectDBX Classes
 90
        0
280
     0
281
     1
  0
CLASS
  1
ACDBPLACEHOLDER
  2
AcDbPlaceHolder
  3
ObjectDBX Classes
 90
        0
280
     0
281
     0
  0
CLASS
  1
LAYOUT
  2
AcDbLayout
  3
ObjectDBX Classes
 90
        0
280
     0
281
     0
  0
ENDSEC
  0
SECTION
  2
TABLES
  0
TABLE
  2
VPORT
  5
8
102
{ACAD_XDICTIONARY
360
364
102
}
330
0
100
AcDbSymbolTable
 70
     1
  0
VPORT
  5
29
330
8
100
AcDbSymbolTableRecord
100
AcDbViewportTableRecord
  2
*ACTIVE
 70
     0
 10
0.0
 20
0.0
 11
1.0
 21
1.0
 12
0.0
 22
0.0
 13
0.0
 23
0.0
 14
0.5
 24
0.5
 15
0.5
 25
0.5
 16
0.517770581935326
 26
-0.8372926600577097
 36
0.1756548487683679
 17
71.70271659773803
 27
12.25538163118347
 37
15.95771516443024
 40
125.8483452499514
 41
1.3333
 42
50.38394550081738
 43
-232.296209260644
 44
2305.163790739356
 50
0.0
 51
0.0000000000000064
 71
     1
 72
   100
 73
     1
 74
     3
 75
     0
 76
     0
 77
     0
 78
     0
  0
ENDTAB
  0
TABLE
  2
LTYPE
  5
5
330
0
100
AcDbSymbolTable
 70
     1
  0
LTYPE
  5
14
330
5
100
AcDbSymbolTableRecord
100
AcDbLinetypeTableRecord
  2
BYBLOCK
 70
     0
  3

 72
    65
 73
     0
 40
0.0
  0
LTYPE
  5
15
330
5
100
AcDbSymbolTableRecord
100
AcDbLinetypeTableRecord
  2
BYLAYER
 70
     0
  3

 72
    65
 73
     0
 40
0.0
  0
LTYPE
  5
16
330
5
100
AcDbSymbolTableRecord
100
AcDbLinetypeTableRecord
  2
CONTINUOUS
 70
     0
  3
Solid line
 72
    65
 73
     0
 40
0.0
  0
ENDTAB
  0
TABLE
  2
LAYER
  5
2
330
0
100
AcDbSymbolTable
 70
     3
  0
LAYER
  5
10
330
2
100
AcDbSymbolTableRecord
100
AcDbLayerTableRecord
  2
0
 70
     0
 62
    13
  6
CONTINUOUS
  0
LAYER
  5
6E
330
2
100
AcDbSymbolTableRecord
100
AcDbLayerTableRecord
  2
MANGUETER_A
 70
     0
 62
     7
  6
CONTINUOUS
  0
LAYER
  5
70
330
2
100
AcDbSymbolTableRecord
100
AcDbLayerTableRecord
  2
TEMPORARY_SYSTEM_CAMERAS_L
 70
     0
 62
     7
  6
CONTINUOUS
  0
ENDTAB
  0
TABLE
  2
STYLE
  5
3
330
0
100
AcDbSymbolTable
 70
     2
  0
STYLE
  5
11
330
3
100
AcDbSymbolTableRecord
100
AcDbTextStyleTableRecord
  2
STANDARD
 70
     0
 40
0.0
 41
1.0
 50
0.0
 71
     0
 42
0.2
  3
txt
  4

  0
STYLE
  5
72
330
3
100
AcDbSymbolTableRecord
100
AcDbTextStyleTableRecord
  2
LUCIDA_GRANDE
 70
     0
 40
0.0
 41
1.0
 50
0.0
 71
     0
 42
0.2
  3
Lucida Grande
  4

1001
ACAD
1000
Lucida Grande
1071
       34
  0
ENDTAB
  0
TABLE
  2
VIEW
  5
6
330
0
100
AcDbSymbolTable
 70
     1
  0
VIEW
  5
6F
330
6
100
AcDbSymbolTableRecord
100
AcDbViewTableRecord
  2
ESCENA1
 70
     0
 40
125.8483452499514
 10
0.0
 20
0.0
 41
167.7935987217602
 11
26.08732478215597
 21
-42.18610775258206
 31
8.850184327299768
 12
71.70271659773803
 22
12.25538163118347
 32
15.95771516443024
 42
50.38394550081738
 43
-232.296209260644
 44
2305.163790739356
 50
0.0000000000000064
 71
     1
  0
ENDTAB
  0
TABLE
  2
UCS
  5
7
330
0
100
AcDbSymbolTable
 70
     0
  0
ENDTAB
  0
TABLE
  2
APPID
  5
9
330
0
100
AcDbSymbolTable
 70
     3
  0
APPID
  5
12
330
9
100
AcDbSymbolTableRecord
100
AcDbRegAppTableRecord
  2
ACAD
 70
     0
  0
APPID
  5
E0
330
9
100
AcDbSymbolTableRecord
100
AcDbRegAppTableRecord
  2
ACAD_MATERIAL_MAPPER
 70
     0
  0
APPID
  5
376
330
9
100
AcDbSymbolTableRecord
100
AcDbRegAppTableRecord
  2
ACAD_MLEADERVER
 70
     0
  0
ENDTAB
  0
TABLE
  2
DIMSTYLE
  5
A
330
0
100
AcDbSymbolTable
 70
     2
  0
DIMSTYLE
105
27
330
A
100
AcDbSymbolTableRecord
100
AcDbDimStyleTableRecord
  2
STANDARD
 70
     0
  3

  4

  5

  6

  7

 40
1.0
 41
0.18
 42
0.0625
 43
0.38
 44
0.18
 45
0.0
 46
0.0
 47
0.0
 48
0.0
140
0.18
141
0.09
142
0.0
143
25.4
144
1.0
145
0.0
146
1.0
147
0.09
 71
     0
 72
     0
 73
     1
 74
     1
 75
     0
 76
     0
 77
     0
 78
     0
170
     0
171
     2
172
     0
173
     0
174
     0
175
     0
176
     0
177
     0
178
     0
270
     2
271
     4
272
     4
273
     2
274
     2
340
11
275
     0
280
     0
281
     0
282
     0
283
     1
284
     0
285
     0
286
     0
287
     3
288
     0
  0
DIMSTYLE
105
73
330
A
100
AcDbSymbolTableRecord
100
AcDbDimStyleTableRecord
  2
DIMENSIONS
 70
     0
  3
cm
  4

  5

  6

  7

 40
1.0
 41
1.27
 42
1.27
 43
0.38
 44
1.27
 45
0.0
 46
0.0
 47
0.0
 48
0.0
140
2.54
141
0.09
142
0.0
143
25.4
144
1.0
145
0.0
146
1.0
147
0.254
 71
     0
 72
     0
 73
     1
 74
     1
 75
     0
 76
     0
 77
     0
 78
     0
170
     0
171
     2
172
     0
173
     0
174
     0
175
     0
176
     0
177
     0
178
     0
270
     2
271
     1
272
     4
273
     2
274
     2
340
72
275
     0
280
     0
281
     0
282
     0
283
     1
284
     0
285
     0
286
     0
287
     3
288
     0
  0
ENDTAB
  0
TABLE
  2
BLOCK_RECORD
  5
1
330
0
100
AcDbSymbolTable
 70
     9
  0
BLOCK_RECORD
  5
1F
330
1
100
AcDbSymbolTableRecord
100
AcDbBlockTableRecord
  2
*MODEL_SPACE
  0
BLOCK_RECORD
  5
1B
330
1
100
AcDbSymbolTableRecord
100
AcDbBlockTableRecord
  2
*PAPER_SPACE
  0
BLOCK_RECORD
  5
74
330
1
100
AcDbSymbolTableRecord
100
AcDbBlockTableRecord
  2
RS_OLUM_V3-PL_DWG_1
  0
BLOCK_RECORD
  5
77
330
1
100
AcDbSymbolTableRecord
100
AcDbBlockTableRecord
  2
VENTANA_2
  0
BLOCK_RECORD
  5
7A
330
1
100
AcDbSymbolTableRecord
100
AcDbBlockTableRecord
  2
VENTANA_3
  0
BLOCK_RECORD
  5
7D
330
1
100
AcDbSymbolTableRecord
100
AcDbBlockTableRecord
  2
D0117_F_DWG
  0
BLOCK_RECORD
  5
80
330
1
100
AcDbSymbolTableRecord
100
AcDbBlockTableRecord
  2
UNIR_2
  0
BLOCK_RECORD
  5
83
330
1
100
AcDbSymbolTableRecord
100
AcDbBlockTableRecord
  2
GRUPO_3
  0
BLOCK_RECORD
  5
86
330
1
100
AcDbSymbolTableRecord
100
AcDbBlockTableRecord
  2
GRUPO_4
  0
BLOCK_RECORD
  5
89
330
1
100
AcDbSymbolTableRecord
100
AcDbBlockTableRecord
  2
GRUPO_5
  0
BLOCK_RECORD
  5
8C
330
1
100
AcDbSymbolTableRecord
100
AcDbBlockTableRecord
  2
GRUPO_2
  0
ENDTAB
  0
ENDSEC
  0
SECTION
  2
BLOCKS
  0
BLOCK
  5
20
330
1F
100
AcDbEntity
  8
0
100
AcDbBlockBegin
  2
*MODEL_SPACE
 70
     0
 10
0.0
 20
0.0
 30
0.0
  3
*MODEL_SPACE
  1

  0
ENDBLK
  5
21
330
1F
100
AcDbEntity
  8
0
100
AcDbBlockEnd
  0
BLOCK
  5
1C
330
1B
100
AcDbEntity
 67
     1
  8
0
100
AcDbBlockBegin
  2
*PAPER_SPACE
 70
     0
 10
0.0
 20
0.0
 30
0.0
  3
*PAPER_SPACE
  1

  0
ENDBLK
  5
1D
330
1B
100
AcDbEntity
 67
     1
  8
0
100
AcDbBlockEnd
  0
BLOCK
  5
75
330
74
100
AcDbEntity
  8
0
100
AcDbBlockBegin
  2
RS_OLUM_V3-PL_DWG_1
 70
     0
 10
0.0
 20
0.0
 30
0.0
  3
RS_OLUM_V3-PL_DWG_1
  1

  0
LINE
  5
8F
330
74
100
AcDbEntity
  8
0
 62
     0
100
AcDbLine
 10
6.499999999999966
 20
0.1699999999999974
 30
0.0
 11
6.499999999999966
 21
0.0
 31
0.0
  0
LINE
  5
90
330
74
100
AcDbEntity
  8
0
 62
     0
100
AcDbLine
 10
6.499999999999966
 20
0.0
 30
0.0
 11
6.949999999999972
 21
0.0
 31
0.0
  0
LINE
  5
91
330
74
100
AcDbEntity
  8
0
 62
     0
100
AcDbLine
 10
6.949999999999972
 20
0.0
 30
0.0
 11
6.949999999999972
 21
0.4499999999999699
 31
0.0
  0
LINE
  5
92
330
74
100
AcDbEntity
  8
0
 62
     0
100
AcDbLine
 10
6.949999999999972
 20
0.4499999999999699
 30
0.0
 11
6.589999999999981
 21
0.4499999999999699
 31
0.0
  0
LINE
  5
93
330
74
100
AcDbEntity
  8
0
 62
     0
100
AcDbLine
 10
6.589999999999981
 20
0.4499999999999699
 30
0.0
 11
6.589999999999981
 21
0.1699999999999974
 31
0.0
  0
LINE
  5
94
330
74
100
AcDbEntity
  8
0
 62
     0
100
AcDbLine
 10
6.589999999999981
 20
0.1699999999999974
 30
0.0
 11
6.499999999999966
 21
0.1699999999999974
 31
0.0
  0
LINE
  5
95
330
74
100
AcDbEntity
  8
0
 62
     0
100
AcDbLine
 10
6.589999999999981
 20
0.2300000000000199
 30
0.0
 11
6.589999999999981
 21
0.4499999999999699
 31
0.0
  0
LINE
  5
96
330
74
100
AcDbEntity
  8
0
 62
     0
100
AcDbLine
 10
6.589999999999981
 20
0.4499999999999699
 30
0.0
 11
6.499999999999966
 21
0.4499999999999699
 31
0.0
  0
LINE
  5
97
330
74
100
AcDbEntity
  8
0
 62
     0
100
AcDbLine
 10
6.499999999999966
 20
0.4499999999999699
 30
0.0
 11
6.499999999999966
 21
0.2300000000000199
 31
0.0
  0
LINE
  5
98
330
74
100
AcDbEntity
  8
0
 62
     0
100
AcDbLine
 10
6.499999999999966
 20
0.2300000000000199
 30
0.0
 11
6.589999999999981
 21
0.2300000000000199
 31
0.0
  0
LINE
  5
9A
330
74
100
AcDbEntity
  8
0
 62
     8
100
AcDbLine
 10
6.589999999999981
 20
0.2300000000000199
 30
0.0
 11
0.5599999999999449
 21
0.2300000000000199
 31
0.0
  0
LINE
  5
9B
330
74
100
AcDbEntity
  8
0
 62
     8
100
AcDbLine
 10
6.589999999999981
 20
0.1699999999999974
 30
0.0
 11
0.5599999999999449
 21
0.1699999999999613
 31
0.0
  0
LINE
  5
9C
330
74
100
AcDbEntity
  8
0
 62
     8
100
AcDbLine
 10
6.499999999999966
 20
0.4499999999999699
 30
0.0
 11
0.6499999999999605
 21
0.4500000000000421
 31
0.0
  0
LINE
  5
9D
330
74
100
AcDbEntity
  8
0
 62
     0
100
AcDbLine
 10
0.6499999999999605
 20
0.1699999999999974
 30
0.0
 11
0.6499999999999605
 21
0.0
 31
0.0
  0
LINE
  5
9E
330
74
100
AcDbEntity
  8
0
 62
     0
100
AcDbLine
 10
0.6499999999999605
 20
0.0
 30
0.0
 11
0.1999999999999545
 21
0.0
 31
0.0
  0
LINE
  5
9F
330
74
100
AcDbEntity
  8
0
 62
     0
100
AcDbLine
 10
0.1999999999999545
 20
0.0
 30
0.0
 11
0.1999999999999545
 21
0.4499999999999699
 31
0.0
  0
LINE
  5
A0
330
74
100
AcDbEntity
  8
0
 62
     0
100
AcDbLine
 10
0.1999999999999545
 20
0.4499999999999699
 30
0.0
 11
0.5599999999999449
 21
0.4499999999999699
 31
0.0
  0
LINE
  5
A1
330
74
100
AcDbEntity
  8
0
 62
     0
100
AcDbLine
 10
0.5599999999999449
 20
0.4499999999999699
 30
0.0
 11
0.5599999999999449
 21
0.1699999999999613
 31
0.0
  0
LINE
  5
A2
330
74
100
AcDbEntity
  8
0
 62
     0
100
AcDbLine
 10
0.5599999999999449
 20
0.1699999999999613
 30
0.0
 11
0.6499999999999605
 21
0.1699999999999974
 31
0.0
  0
LINE
  5
A3
330
74
100
AcDbEntity
  8
0
 62
     0
100
AcDbLine
 10
0.5599999999999449
 20
0.2300000000000199
 30
0.0
 11
0.5599999999999449
 21
0.4499999999999699
 31
0.0
  0
LINE
  5
A4
330
74
100
AcDbEntity
  8
0
 62
     0
100
AcDbLine
 10
0.5599999999999449
 20
0.4499999999999699
 30
0.0
 11
0.6499999999999605
 21
0.4500000000000421
 31
0.0
  0
LINE
  5
A5
330
74
100
AcDbEntity
  8
0
 62
     0
100
AcDbLine
 10
0.6499999999999605
 20
0.4500000000000421
 30
0.0
 11
0.6499999999999605
 21
0.2300000000000199
 31
0.0
  0
LINE
  5
A6
330
74
100
AcDbEntity
  8
0
 62
     0
100
AcDbLine
 10
0.6499999999999605
 20
0.2300000000000199
 30
0.0
 11
0.5599999999999449
 21
0.2300000000000199
 31
0.0
  0
LINE
  5
A7
330
74
100
AcDbEntity
  8
0
 62
     8
100
AcDbLine
 10
6.499999999999966
 20
0.0
 30
0.0
 11
0.6499999999999605
 21
0.0
 31
0.0
  0
LINE
  5
A8
330
74
100
AcDbEntity
  8
0
 62
     0
100
AcDbLine
 10
13.69999999999992
 20
0.9500000000000367
 30
0.0
 11
0.1999999999999545
 21
0.9500000000000006
 31
0.0
  0
LINE
  5
A9
330
74
100
AcDbEntity
  8
0
 62
     0
100
AcDbLine
 10
7.399999999999942
 20
0.1699999999999974
 30
0.0
 11
7.399999999999942
 21
0.0
 31
0.0
  0
LINE
  5
AA
330
74
100
AcDbEntity
  8
0
 62
     0
100
AcDbLine
 10
7.399999999999942
 20
0.0
 30
0.0
 11
6.949999999999972
 21
0.0
 31
0.0
  0
LINE
  5
AB
330
74
100
AcDbEntity
  8
0
 62
     0
100
AcDbLine
 10
6.949999999999972
 20
0.4499999999999699
 30
0.0
 11
7.309999999999962
 21
0.4499999999999699
 31
0.0
  0
LINE
  5
AC
330
74
100
AcDbEntity
  8
0
 62
     0
100
AcDbLine
 10
7.309999999999962
 20
0.4499999999999699
 30
0.0
 11
7.309999999999962
 21
0.1699999999999974
 31
0.0
  0
LINE
  5
AD
330
74
100
AcDbEntity
  8
0
 62
     0
100
AcDbLine
 10
7.309999999999962
 20
0.1699999999999974
 30
0.0
 11
7.399999999999942
 21
0.1699999999999974
 31
0.0
  0
LINE
  5
AE
330
74
100
AcDbEntity
  8
0
 62
     0
100
AcDbLine
 10
7.309999999999962
 20
0.2300000000000199
 30
0.0
 11
7.309999999999962
 21
0.4499999999999699
 31
0.0
  0
LINE
  5
AF
330
74
100
AcDbEntity
  8
0
 62
     0
100
AcDbLine
 10
7.309999999999962
 20
0.4499999999999699
 30
0.0
 11
7.399999999999942
 21
0.4499999999999699
 31
0.0
  0
LINE
  5
B0
330
74
100
AcDbEntity
  8
0
 62
     0
100
AcDbLine
 10
7.399999999999942
 20
0.4499999999999699
 30
0.0
 11
7.399999999999942
 21
0.2300000000000199
 31
0.0
  0
LINE
  5
B1
330
74
100
AcDbEntity
  8
0
 62
     0
100
AcDbLine
 10
7.399999999999942
 20
0.2300000000000199
 30
0.0
 11
7.309999999999962
 21
0.2300000000000199
 31
0.0
  0
LINE
  5
B2
330
74
100
AcDbEntity
  8
0
 62
     8
100
AcDbLine
 10
7.309999999999962
 20
0.2300000000000199
 30
0.0
 11
13.33999999999993
 21
0.230000000000056
 31
0.0
  0
LINE
  5
B3
330
74
100
AcDbEntity
  8
0
 62
     8
100
AcDbLine
 10
7.309999999999962
 20
0.1699999999999974
 30
0.0
 11
13.33999999999993
 21
0.1699999999999974
 31
0.0
  0
LINE
  5
B4
330
74
100
AcDbEntity
  8
0
 62
     8
100
AcDbLine
 10
7.399999999999942
 20
0.4499999999999699
 30
0.0
 11
13.24999999999991
 21
0.4500000000000782
 31
0.0
  0
LINE
  5
B5
330
74
100
AcDbEntity
  8
0
 62
     0
100
AcDbLine
 10
13.24999999999991
 20
0.1700000000000696
 30
0.0
 11
13.24999999999991
 21
0.0000000000000361
 31
0.0
  0
LINE
  5
B6
330
74
100
AcDbEntity
  8
0
 62
     0
100
AcDbLine
 10
13.24999999999991
 20
0.0000000000000361
 30
0.0
 11
13.69999999999992
 21
0.0000000000000361
 31
0.0
  0
LINE
  5
B7
330
74
100
AcDbEntity
  8
0
 62
     0
100
AcDbLine
 10
13.69999999999992
 20
0.0000000000000361
 30
0.0
 11
13.69999999999992
 21
0.4500000000000421
 31
0.0
  0
LINE
  5
B8
330
74
100
AcDbEntity
  8
0
 62
     0
100
AcDbLine
 10
13.69999999999992
 20
0.4500000000000421
 30
0.0
 11
13.33999999999993
 21
0.4500000000000421
 31
0.0
  0
LINE
  5
B9
330
74
100
AcDbEntity
  8
0
 62
     0
100
AcDbLine
 10
13.33999999999993
 20
0.4500000000000421
 30
0.0
 11
13.33999999999993
 21
0.1699999999999974
 31
0.0
  0
LINE
  5
BA
330
74
100
AcDbEntity
  8
0
 62
     0
100
AcDbLine
 10
13.33999999999993
 20
0.1699999999999974
 30
0.0
 11
13.24999999999991
 21
0.1700000000000696
 31
0.0
  0
LINE
  5
BB
330
74
100
AcDbEntity
  8
0
 62
     0
100
AcDbLine
 10
13.33999999999993
 20
0.230000000000056
 30
0.0
 11
13.33999999999993
 21
0.4500000000000421
 31
0.0
  0
LINE
  5
BC
330
74
100
AcDbEntity
  8
0
 62
     0
100
AcDbLine
 10
13.33999999999993
 20
0.4500000000000421
 30
0.0
 11
13.24999999999991
 21
0.4500000000000782
 31
0.0
  0
LINE
  5
BD
330
74
100
AcDbEntity
  8
0
 62
     0
100
AcDbLine
 10
13.24999999999991
 20
0.4500000000000782
 30
0.0
 11
13.24999999999991
 21
0.230000000000056
 31
0.0
  0
LINE
  5
BE
330
74
100
AcDbEntity
  8
0
 62
     0
100
AcDbLine
 10
13.24999999999991
 20
0.230000000000056
 30
0.0
 11
13.33999999999993
 21
0.230000000000056
 31
0.0
  0
LINE
  5
BF
330
74
100
AcDbEntity
  8
0
 62
     8
100
AcDbLine
 10
7.399999999999942
 20
0.0
 30
0.0
 11
13.24999999999991
 21
0.0000000000000361
 31
0.0
  0
LINE
  5
C0
330
74
100
AcDbEntity
  8
0
 62
     0
100
AcDbLine
 10
0.1999999999999545
 20
0.9500000000000006
 30
0.0
 11
0.1999999999999545
 21
0.0
 31
0.0
  0
LINE
  5
C1
330
74
100
AcDbEntity
  8
0
 62
     0
100
AcDbLine
 10
0.1999999999999545
 20
0.0
 30
0.0
 11
0.0
 21
0.0
 31
0.0
  0
LINE
  5
C2
330
74
100
AcDbEntity
  8
0
 62
     0
100
AcDbLine
 10
0.0
 20
0.0
 30
0.0
 11
0.0
 21
0.9500000000000006
 31
0.0
  0
LINE
  5
C3
330
74
100
AcDbEntity
  8
0
 62
     0
100
AcDbLine
 10
0.0
 20
0.9500000000000006
 30
0.0
 11
0.1999999999999545
 21
0.9500000000000006
 31
0.0
  0
LINE
  5
C4
330
74
100
AcDbEntity
  8
0
 62
     0
100
AcDbLine
 10
13.69999999999992
 20
0.9500000000000367
 30
0.0
 11
13.69999999999992
 21
0.0000000000000361
 31
0.0
  0
LINE
  5
C5
330
74
100
AcDbEntity
  8
0
 62
     0
100
AcDbLine
 10
13.69999999999992
 20
0.0000000000000361
 30
0.0
 11
13.89999999999991
 21
0.0000000000000361
 31
0.0
  0
LINE
  5
C6
330
74
100
AcDbEntity
  8
0
 62
     0
100
AcDbLine
 10
13.89999999999991
 20
0.0000000000000361
 30
0.0
 11
13.89999999999991
 21
0.9500000000000367
 31
0.0
  0
LINE
  5
C7
330
74
100
AcDbEntity
  8
0
 62
     0
100
AcDbLine
 10
13.89999999999991
 20
0.9500000000000367
 30
0.0
 11
13.69999999999992
 21
0.9500000000000367
 31
0.0
  0
ENDBLK
  5
76
330
74
100
AcDbEntity
  8
0
100
AcDbBlockEnd
  0
BLOCK
  5
78
330
77
100
AcDbEntity
  8
0
100
AcDbBlockBegin
  2
VENTANA_2
 70
     0
 10
0.0
 20
0.0
 30
0.0
  3
VENTANA_2
  1

  0
INSERT
  5
C8
330
77
100
AcDbEntity
  8
0
 62
     0
100
AcDbBlockReference
 66
     1
  2
UNIR_2
 10
0.0
 20
0.0
 30
0.0
  0
ATTRIB
  5
C9
330
C8
100
AcDbEntity
  8
0
100
AcDbText
 10
0.0
 20
0.0
 30
0.0
 40
1.0
  1
Unir
100
AcDbAttribute
  2
Skp_GroupInstanceName
 70
     0
  0
SEQEND
  5
CA
330
C8
100
AcDbEntity
  8
0
 62
     0
  0
ENDBLK
  5
79
330
77
100
AcDbEntity
  8
0
100
AcDbBlockEnd
  0
BLOCK
  5
7B
330
7A
100
AcDbEntity
  8
0
100
AcDbBlockBegin
  2
VENTANA_3
 70
     0
 10
0.0
 20
0.0
 30
0.0
  3
VENTANA_3
  1

  0
INSERT
  5
CB
330
7A
100
AcDbEntity
  8
0
 62
     0
100
AcDbBlockReference
 66
     1
  2
UNIR_2
 10
0.0
 20
0.0
 30
0.0
  0
ATTRIB
  5
CC
330
CB
100
AcDbEntity
  8
0
100
AcDbText
 10
0.0
 20
0.0
 30
0.0
 40
1.0
  1
Unir
100
AcDbAttribute
  2
Skp_GroupInstanceName
 70
     0
  0
SEQEND
  5
CD
330
CB
100
AcDbEntity
  8
0
 62
     0
  0
ENDBLK
  5
7C
330
7A
100
AcDbEntity
  8
0
100
AcDbBlockEnd
  0
BLOCK
  5
7E
330
7D
100
AcDbEntity
  8
0
100
AcDbBlockBegin
  2
D0117_F_DWG
 70
     0
 10
0.0
 20
0.0
 30
0.0
  3
D0117_F_DWG
  1

  0
LINE
  5
CF
330
7D
100
AcDbEntity
  8
0
 62
     1
100
AcDbLine
 10
109.4
 20
32.0
 30
0.0
 11
0.0
 21
32.0
 31
0.0
  0
LINE
  5
D0
330
7D
100
AcDbEntity
  8
0
 62
     1
100
AcDbLine
 10
0.0
 20
32.0
 30
0.0
 11
0.0
 21
0.0
 31
0.0
  0
LINE
  5
D1
330
7D
100
AcDbEntity
  8
0
 62
     1
100
AcDbLine
 10
0.0
 20
0.0
 30
0.0
 11
109.4
 21
0.0
 31
0.0
  0
LINE
  5
D2
330
7D
100
AcDbEntity
  8
0
 62
     1
100
AcDbLine
 10
109.4
 20
0.0
 30
0.0
 11
109.4
 21
32.0
 31
0.0
  0
LINE
  5
D3
330
7D
100
AcDbEntity
  8
0
 62
     1
100
AcDbLine
 10
103.4
 20
25.99999999999999
 30
0.0
 11
6.000000000000007
 21
25.99999999999999
 31
0.0
  0
LINE
  5
D4
330
7D
100
AcDbEntity
  8
0
 62
     1
100
AcDbLine
 10
6.000000000000007
 20
25.99999999999999
 30
0.0
 11
6.000000000000007
 21
5.999999999999989
 31
0.0
  0
LINE
  5
D5
330
7D
100
AcDbEntity
  8
0
 62
     1
100
AcDbLine
 10
6.000000000000007
 20
5.999999999999989
 30
0.0
 11
103.4
 21
5.999999999999989
 31
0.0
  0
LINE
  5
D6
330
7D
100
AcDbEntity
  8
0
 62
     1
100
AcDbLine
 10
103.4
 20
5.999999999999989
 30
0.0
 11
103.4
 21
25.99999999999999
 31
0.0
  0
LINE
  5
D8
330
7D
100
AcDbEntity
  8
0
 62
     5
100
AcDbLine
 10
104.4
 20
27.0
 30
0.0
 11
4.999999999999982
 21
27.0
 31
0.0
  0
LINE
  5
D9
330
7D
100
AcDbEntity
  8
0
 62
     5
100
AcDbLine
 10
4.999999999999982
 20
27.0
 30
0.0
 11
4.999999999999982
 21
5.0
 31
0.0
  0
LINE
  5
DA
330
7D
100
AcDbEntity
  8
0
 62
     5
100
AcDbLine
 10
4.999999999999982
 20
5.0
 30
0.0
 11
104.4
 21
5.0
 31
0.0
  0
LINE
  5
DB
330
7D
100
AcDbEntity
  8
0
 62
     5
100
AcDbLine
 10
104.4
 20
5.0
 30
0.0
 11
104.4
 21
27.0
 31
0.0
  0
LINE
  5
DC
330
7D
100
AcDbEntity
  8
0
 62
     5
100
AcDbLine
 10
105.8
 20
28.4
 30
0.0
 11
3.599999999999976
 21
28.4
 31
0.0
  0
LINE
  5
DD
330
7D
100
AcDbEntity
  8
0
 62
     5
100
AcDbLine
 10
3.599999999999976
 20
28.4
 30
0.0
 11
3.599999999999976
 21
3.599999999999994
 31
0.0
  0
LINE
  5
DE
330
7D
100
AcDbEntity
  8
0
 62
     5
100
AcDbLine
 10
3.599999999999976
 20
3.599999999999994
 30
0.0
 11
105.8
 21
3.599999999999994
 31
0.0
  0
LINE
  5
DF
330
7D
100
AcDbEntity
  8
0
 62
     5
100
AcDbLine
 10
105.8
 20
3.599999999999994
 30
0.0
 11
105.8
 21
28.4
 31
0.0
  0
ENDBLK
  5
7F
330
7D
100
AcDbEntity
  8
0
100
AcDbBlockEnd
  0
BLOCK
  5
81
330
80
100
AcDbEntity
  8
0
100
AcDbBlockBegin
  2
UNIR_2
 70
     0
 10
0.0
 20
0.0
 30
0.0
  3
UNIR_2
  1

  0
POLYLINE
  5
E1
330
80
100
AcDbEntity
  8
0
 62
     0
100
AcDbPolyFaceMesh
 66
     1
 10
0.0
 20
0.0
 30
0.0
 70
    64
 71
     4
 72
     2
1001
ACAD_MATERIAL_MAPPER
1070
     1
1070
     1
1070
     1
1011
0.0
1021
-0.0000000000000003
1031
0.0
1011
0.0
1021
2.54
1031
0.0
1011
0.0
1021
-0.0000000000000003
1031
2.54
1011
1.0
1021
-0.0000000000000003
1031
0.0
  0
VERTEX
  5
E2
330
E1
100
AcDbEntity
  8
0
 62
     0
100
AcDbVertex
100
AcDbPolyFaceMeshVertex
 10
3.600000000000264
 20
4.499999999999699
 30
3.600000000000001
 70
   192
  0
VERTEX
  5
E3
330
E1
100
AcDbEntity
  8
0
 62
     0
100
AcDbVertex
100
AcDbPolyFaceMeshVertex
 10
3.600000000000246
 20
1.699999999999974
 30
102.3999999999997
 70
   192
  0
VERTEX
  5
E4
330
E1
100
AcDbEntity
  8
0
 62
     0
100
AcDbVertex
100
AcDbPolyFaceMeshVertex
 10
3.600000000000264
 20
1.699999999999974
 30
3.600000000000001
 70
   192
  0
VERTEX
  5
E5
330
E1
100
AcDbEntity
  8
0
 62
     0
100
AcDbVertex
100
AcDbPolyFaceMeshVertex
 10
3.600000000000246
 20
4.499999999999699
 30
102.3999999999997
 70
   192
  0
VERTEX
  5
E6
330
E1
100
AcDbEntity
  8
0
 62
     0
100
AcDbFaceRecord
 10
0.0
 20
0.0
 30
0.0
 70
   128
 71
    -1
 72
     2
 73
     3
  0
VERTEX
  5
E7
330
E1
100
AcDbEntity
  8
0
 62
     0
100
AcDbFaceRecord
 10
0.0
 20
0.0
 30
0.0
 70
   128
 71
    -2
 72
     1
 73
     4
  0
SEQEND
  5
E8
330
E1
100
AcDbEntity
  8
0
 62
     0
  0
LINE
  5
E9
330
80
100
AcDbEntity
  8
0
 62
     0
100
AcDbLine
 10
3.600000000000264
 20
1.699999999999974
 30
3.600000000000001
 11
3.600000000000246
 21
1.699999999999974
 31
102.3999999999997
  0
LINE
  5
EA
330
80
100
AcDbEntity
  8
0
 62
     0
100
AcDbLine
 10
3.600000000000264
 20
4.499999999999699
 30
3.600000000000001
 11
3.600000000000264
 21
1.699999999999974
 31
3.600000000000001
  0
LINE
  5
EB
330
80
100
AcDbEntity
  8
0
 62
     0
100
AcDbLine
 10
3.600000000000264
 20
4.499999999999699
 30
3.600000000000001
 11
3.600000000000246
 21
4.499999999999699
 31
102.3999999999997
  0
LINE
  5
EC
330
80
100
AcDbEntity
  8
0
 62
     0
100
AcDbLine
 10
3.600000000000246
 20
4.499999999999699
 30
102.3999999999997
 11
3.600000000000246
 21
1.699999999999974
 31
102.3999999999997
  0
POLYLINE
  5
ED
330
80
100
AcDbEntity
  8
0
 62
     0
100
AcDbPolyFaceMesh
 66
     1
 10
0.0
 20
0.0
 30
0.0
 70
    64
 71
     4
 72
     2
1001
ACAD_MATERIAL_MAPPER
1070
     1
1070
     1
1070
     1
1011
0.0
1021
0.0
1031
0.0
1011
-2.54
1021
0.0
1031
0.0
1011
0.0
1021
2.54
1031
0.0
1011
0.0
1021
0.0
1031
1.0
  0
VERTEX
  5
EE
330
ED
100
AcDbEntity
  8
0
 62
     0
100
AcDbVertex
100
AcDbPolyFaceMeshVertex
 10
67.50000000000021
 20
4.499999999999699
 30
0.0
 70
   192
  0
VERTEX
  5
EF
330
ED
100
AcDbEntity
  8
0
 62
     0
100
AcDbVertex
100
AcDbPolyFaceMeshVertex
 10
0.0
 20
0.0
 30
0.0
 70
   192
  0
VERTEX
  5
F0
330
ED
100
AcDbEntity
  8
0
 62
     0
100
AcDbVertex
100
AcDbPolyFaceMeshVertex
 10
0.0
 20
4.499999999999699
 30
0.0
 70
   192
  0
VERTEX
  5
F1
330
ED
100
AcDbEntity
  8
0
 62
     0
100
AcDbVertex
100
AcDbPolyFaceMeshVertex
 10
67.50000000000021
 20
0.0
 30
0.0
 70
   192
  0
VERTEX
  5
F2
330
ED
100
AcDbEntity
  8
0
 62
     0
100
AcDbFaceRecord
 10
0.0
 20
0.0
 30
0.0
 70
   128
 71
    -1
 72
     2
 73
     3
  0
VERTEX
  5
F3
330
ED
100
AcDbEntity
  8
0
 62
     0
100
AcDbFaceRecord
 10
0.0
 20
0.0
 30
0.0
 70
   128
 71
    -2
 72
     1
 73
     4
  0
SEQEND
  5
F4
330
ED
100
AcDbEntity
  8
0
 62
     0
  0
LINE
  5
F5
330
80
100
AcDbEntity
  8
0
 62
     0
100
AcDbLine
 10
0.0
 20
4.499999999999699
 30
0.0
 11
67.50000000000021
 21
4.499999999999699
 31
0.0
  0
LINE
  5
F6
330
80
100
AcDbEntity
  8
0
 62
     0
100
AcDbLine
 10
67.50000000000021
 20
0.0
 30
0.0
 11
67.50000000000021
 21
4.499999999999699
 31
0.0
  0
LINE
  5
F7
330
80
100
AcDbEntity
  8
0
 62
     0
100
AcDbLine
 10
67.50000000000021
 20
0.0
 30
0.0
 11
0.0
 21
0.0
 31
0.0
  0
LINE
  5
F8
330
80
100
AcDbEntity
  8
0
 62
     0
100
AcDbLine
 10
0.0
 20
0.0
 30
0.0
 11
0.0
 21
4.499999999999699
 31
0.0
  0
POLYLINE
  5
F9
330
80
100
AcDbEntity
  8
0
 62
     0
100
AcDbPolyFaceMesh
 66
     1
 10
0.0
 20
0.0
 30
0.0
 70
    64
 71
     4
 72
     2
1001
ACAD_MATERIAL_MAPPER
1070
     1
1070
     1
1070
     1
1011
0.0
1021
0.0
1031
0.0
1011
0.0
1021
2.54
1031
0.0
1011
0.0
1021
0.0
1031
2.54
1011
1.0
1021
0.0
1031
0.0
  0
VERTEX
  5
FA
330
F9
100
AcDbEntity
  8
0
 62
     0
100
AcDbVertex
100
AcDbPolyFaceMeshVertex
 10
4.50000000000006
 20
1.699999999999974
 30
4.5
 70
   192
  0
VERTEX
  5
FB
330
F9
100
AcDbEntity
  8
0
 62
     0
100
AcDbVertex
100
AcDbPolyFaceMeshVertex
 10
4.50000000000006
 20
0.0
 30
101.4999999999999
 70
   192
  0
VERTEX
  5
FC
330
F9
100
AcDbEntity
  8
0
 62
     0
100
AcDbVertex
100
AcDbPolyFaceMeshVertex
 10
4.50000000000006
 20
0.0
 30
4.5
 70
   192
  0
VERTEX
  5
FD
330
F9
100
AcDbEntity
  8
0
 62
     0
100
AcDbVertex
100
AcDbPolyFaceMeshVertex
 10
4.50000000000006
 20
1.699999999999974
 30
101.4999999999999
 70
   192
  0
VERTEX
  5
FE
330
F9
100
AcDbEntity
  8
0
 62
     0
100
AcDbFaceRecord
 10
0.0
 20
0.0
 30
0.0
 70
   128
 71
    -1
 72
     2
 73
     3
  0
VERTEX
  5
FF
330
F9
100
AcDbEntity
  8
0
 62
     0
100
AcDbFaceRecord
 10
0.0
 20
0.0
 30
0.0
 70
   128
 71
    -2
 72
     1
 73
     4
  0
SEQEND
  5
100
330
F9
100
AcDbEntity
  8
0
 62
     0
  0
LINE
  5
101
330
80
100
AcDbEntity
  8
0
 62
     0
100
AcDbLine
 10
4.50000000000006
 20
0.0
 30
4.5
 11
4.50000000000006
 21
0.0
 31
101.4999999999999
  0
LINE
  5
102
330
80
100
AcDbEntity
  8
0
 62
     0
100
AcDbLine
 10
4.50000000000006
 20
0.0
 30
4.5
 11
4.50000000000006
 21
1.699999999999974
 31
4.5
  0
LINE
  5
103
330
80
100
AcDbEntity
  8
0
 62
     0
100
AcDbLine
 10
4.50000000000006
 20
1.699999999999974
 30
4.5
 11
4.50000000000006
 21
1.699999999999974
 31
101.4999999999999
  0
LINE
  5
104
330
80
100
AcDbEntity
  8
0
 62
     0
100
AcDbLine
 10
4.50000000000006
 20
1.699999999999974
 30
101.4999999999999
 11
4.50000000000006
 21
0.0
 31
101.4999999999999
  0
POLYLINE
  5
105
330
80
100
AcDbEntity
  8
0
 62
     0
100
AcDbPolyFaceMesh
 66
     1
 10
0.0
 20
0.0
 30
0.0
 70
    64
 71
     4
 72
     2
1001
ACAD_MATERIAL_MAPPER
1070
     1
1070
     1
1070
     1
1011
0.0
1021
0.0
1031
0.0
1011
0.0
1021
-2.54
1031
0.0
1011
0.0
1021
0.0
1031
2.54
1011
1.0
1021
0.0
1031
0.0
  0
VERTEX
  5
106
330
105
100
AcDbEntity
  8
0
 62
     0
100
AcDbVertex
100
AcDbPolyFaceMeshVertex
 10
0.0
 20
4.499999999999699
 30
106.0
 70
   192
  0
VERTEX
  5
107
330
105
100
AcDbEntity
  8
0
 62
     0
100
AcDbVertex
100
AcDbPolyFaceMeshVertex
 10
0.0
 20
0.0
 30
0.0
 70
   192
  0
VERTEX
  5
108
330
105
100
AcDbEntity
  8
0
 62
     0
100
AcDbVertex
100
AcDbPolyFaceMeshVertex
 10
0.0
 20
0.0
 30
106.0
 70
   192
  0
VERTEX
  5
109
330
105
100
AcDbEntity
  8
0
 62
     0
100
AcDbVertex
100
AcDbPolyFaceMeshVertex
 10
0.0
 20
4.499999999999699
 30
0.0
 70
   192
  0
VERTEX
  5
10A
330
105
100
AcDbEntity
  8
0
 62
     0
100
AcDbFaceRecord
 10
0.0
 20
0.0
 30
0.0
 70
   128
 71
    -1
 72
     2
 73
     3
  0
VERTEX
  5
10B
330
105
100
AcDbEntity
  8
0
 62
     0
100
AcDbFaceRecord
 10
0.0
 20
0.0
 30
0.0
 70
   128
 71
    -2
 72
     1
 73
     4
  0
SEQEND
  5
10C
330
105
100
AcDbEntity
  8
0
 62
     0
  0
LINE
  5
10D
330
80
100
AcDbEntity
  8
0
 62
     0
100
AcDbLine
 10
0.0
 20
0.0
 30
0.0
 11
0.0
 21
4.499999999999699
 31
0.0
  0
LINE
  5
10E
330
80
100
AcDbEntity
  8
0
 62
     0
100
AcDbLine
 10
0.0
 20
0.0
 30
0.0
 11
0.0
 21
0.0
 31
106.0
  0
LINE
  5
10F
330
80
100
AcDbEntity
  8
0
 62
     0
100
AcDbLine
 10
0.0
 20
0.0
 30
106.0
 11
0.0
 21
4.499999999999699
 31
106.0
  0
LINE
  5
110
330
80
100
AcDbEntity
  8
0
 62
     0
100
AcDbLine
 10
0.0
 20
4.499999999999699
 30
0.0
 11
0.0
 21
4.499999999999699
 31
106.0
  0
POLYLINE
  5
111
330
80
100
AcDbEntity
  8
0
 62
     0
100
AcDbPolyFaceMesh
 66
     1
 10
0.0
 20
0.0
 30
0.0
 70
    64
 71
     4
 72
     2
1001
ACAD_MATERIAL_MAPPER
1070
     1
1070
     1
1070
     1
1011
0.0
1021
0.0
1031
0.0
1011
2.54
1021
0.0
1031
0.0
1011
0.0
1021
2.54
1031
0.0
1011
0.0
1021
0.0
1031
1.0
  0
VERTEX
  5
112
330
111
100
AcDbEntity
  8
0
 62
     0
100
AcDbVertex
100
AcDbPolyFaceMeshVertex
 10
63.00000000000015
 20
0.0
 30
4.499999999999999
 70
   192
  0
VERTEX
  5
113
330
111
100
AcDbEntity
  8
0
 62
     0
100
AcDbVertex
100
AcDbPolyFaceMeshVertex
 10
4.50000000000006
 20
1.699999999999974
 30
4.5
 70
   192
  0
VERTEX
  5
114
330
111
100
AcDbEntity
  8
0
 62
     0
100
AcDbVertex
100
AcDbPolyFaceMeshVertex
 10
4.50000000000006
 20
0.0
 30
4.5
 70
   192
  0
VERTEX
  5
115
330
111
100
AcDbEntity
  8
0
 62
     0
100
AcDbVertex
100
AcDbPolyFaceMeshVertex
 10
63.00000000000015
 20
1.699999999999974
 30
4.499999999999999
 70
   192
  0
VERTEX
  5
116
330
111
100
AcDbEntity
  8
0
 62
     0
100
AcDbFaceRecord
 10
0.0
 20
0.0
 30
0.0
 70
   128
 71
    -1
 72
     2
 73
     3
  0
VERTEX
  5
117
330
111
100
AcDbEntity
  8
0
 62
     0
100
AcDbFaceRecord
 10
0.0
 20
0.0
 30
0.0
 70
   128
 71
    -2
 72
     1
 73
     4
  0
SEQEND
  5
118
330
111
100
AcDbEntity
  8
0
 62
     0
  0
LINE
  5
119
330
80
100
AcDbEntity
  8
0
 62
     0
100
AcDbLine
 10
63.00000000000015
 20
1.699999999999974
 30
4.499999999999999
 11
63.00000000000015
 21
0.0
 31
4.499999999999999
  0
LINE
  5
11A
330
80
100
AcDbEntity
  8
0
 62
     0
100
AcDbLine
 10
63.00000000000015
 20
1.699999999999974
 30
4.499999999999999
 11
4.50000000000006
 21
1.699999999999974
 31
4.5
  0
LINE
  5
11B
330
80
100
AcDbEntity
  8
0
 62
     0
100
AcDbLine
 10
4.50000000000006
 20
0.0
 30
4.5
 11
4.50000000000006
 21
1.699999999999974
 31
4.5
  0
LINE
  5
11C
330
80
100
AcDbEntity
  8
0
 62
     0
100
AcDbLine
 10
63.00000000000015
 20
0.0
 30
4.499999999999999
 11
4.50000000000006
 21
0.0
 31
4.5
  0
POLYLINE
  5
11D
330
80
100
AcDbEntity
  8
0
 62
     0
100
AcDbPolyFaceMesh
 66
     1
 10
0.0
 20
0.0
 30
0.0
 70
    64
 71
     4
 72
     2
1001
ACAD_MATERIAL_MAPPER
1070
     1
1070
     1
1070
     1
1011
0.0
1021
0.0
1031
0.0
1011
2.54
1021
0.0
1031
0.0
1011
0.0
1021
2.54
1031
0.0
1011
0.0
1021
0.0
1031
1.0
  0
VERTEX
  5
11E
330
11D
100
AcDbEntity
  8
0
 62
     0
100
AcDbVertex
100
AcDbPolyFaceMeshVertex
 10
63.89999999999995
 20
1.700000000000119
 30
3.599999999999995
 70
   192
  0
VERTEX
  5
11F
330
11D
100
AcDbEntity
  8
0
 62
     0
100
AcDbVertex
100
AcDbPolyFaceMeshVertex
 10
3.600000000000264
 20
4.499999999999699
 30
3.600000000000001
 70
   192
  0
VERTEX
  5
120
330
11D
100
AcDbEntity
  8
0
 62
     0
100
AcDbVertex
100
AcDbPolyFaceMeshVertex
 10
3.600000000000264
 20
1.699999999999974
 30
3.600000000000001
 70
   192
  0
VERTEX
  5
121
330
11D
100
AcDbEntity
  8
0
 62
     0
100
AcDbVertex
100
AcDbPolyFaceMeshVertex
 10
63.90000000000067
 20
4.499999999999843
 30
3.599999999999995
 70
   192
  0
VERTEX
  5
122
330
11D
100
AcDbEntity
  8
0
 62
     0
100
AcDbFaceRecord
 10
0.0
 20
0.0
 30
0.0
 70
   128
 71
    -1
 72
     2
 73
     3
  0
VERTEX
  5
123
330
11D
100
AcDbEntity
  8
0
 62
     0
100
AcDbFaceRecord
 10
0.0
 20
0.0
 30
0.0
 70
   128
 71
    -2
 72
     1
 73
     4
  0
SEQEND
  5
124
330
11D
100
AcDbEntity
  8
0
 62
     0
  0
LINE
  5
125
330
80
100
AcDbEntity
  8
0
 62
     0
100
AcDbLine
 10
3.600000000000264
 20
4.499999999999699
 30
3.600000000000001
 11
63.90000000000067
 21
4.499999999999843
 31
3.599999999999995
  0
LINE
  5
126
330
80
100
AcDbEntity
  8
0
 62
     0
100
AcDbLine
 10
3.600000000000264
 20
4.499999999999699
 30
3.600000000000001
 11
3.600000000000264
 21
1.699999999999974
 31
3.600000000000001
  0
LINE
  5
127
330
80
100
AcDbEntity
  8
0
 62
     0
100
AcDbLine
 10
63.89999999999995
 20
1.700000000000119
 30
3.599999999999995
 11
3.600000000000264
 21
1.699999999999974
 31
3.600000000000001
  0
LINE
  5
128
330
80
100
AcDbEntity
  8
0
 62
     0
100
AcDbLine
 10
63.90000000000067
 20
4.499999999999843
 30
3.599999999999995
 11
63.89999999999995
 21
1.700000000000119
 31
3.599999999999995
  0
POLYLINE
  5
129
330
80
100
AcDbEntity
  8
0
 62
     0
100
AcDbPolyFaceMesh
 66
     1
 10
0.0
 20
0.0
 30
0.0
 70
    64
 71
     4
 72
     2
1001
ACAD_MATERIAL_MAPPER
1070
     1
1070
     1
1070
     1
1011
0.0
1021
-0.0000000000054917
1031
0.0000000000002439
1011
0.0
1021
-2.540000000005491
1031
0.0000000000002439
1011
0.0
1021
-0.0000000000054917
1031
2.540000000000243
1011
1.0
1021
-0.0000000000054917
1031
0.0000000000002439
  0
VERTEX
  5
12A
330
129
100
AcDbEntity
  8
0
 62
     0
100
AcDbVertex
100
AcDbPolyFaceMeshVertex
 10
63.89999999999987
 20
4.499999999999843
 30
102.3999999999997
 70
   192
  0
VERTEX
  5
12B
330
129
100
AcDbEntity
  8
0
 62
     0
100
AcDbVertex
100
AcDbPolyFaceMeshVertex
 10
63.89999999999995
 20
1.700000000000119
 30
3.599999999999995
 70
   192
  0
VERTEX
  5
12C
330
129
100
AcDbEntity
  8
0
 62
     0
100
AcDbVertex
100
AcDbPolyFaceMeshVertex
 10
63.89999999999987
 20
1.700000000000119
 30
102.3999999999997
 70
   192
  0
VERTEX
  5
12D
330
129
100
AcDbEntity
  8
0
 62
     0
100
AcDbVertex
100
AcDbPolyFaceMeshVertex
 10
63.90000000000067
 20
4.499999999999843
 30
3.599999999999995
 70
   192
  0
VERTEX
  5
12E
330
129
100
AcDbEntity
  8
0
 62
     0
100
AcDbFaceRecord
 10
0.0
 20
0.0
 30
0.0
 70
   128
 71
    -1
 72
     2
 73
     3
  0
VERTEX
  5
12F
330
129
100
AcDbEntity
  8
0
 62
     0
100
AcDbFaceRecord
 10
0.0
 20
0.0
 30
0.0
 70
   128
 71
    -2
 72
     1
 73
     4
  0
SEQEND
  5
130
330
129
100
AcDbEntity
  8
0
 62
     0
  0
LINE
  5
131
330
80
100
AcDbEntity
  8
0
 62
     0
100
AcDbLine
 10
63.89999999999995
 20
1.700000000000119
 30
3.599999999999995
 11
63.89999999999987
 21
1.700000000000119
 31
102.3999999999997
  0
LINE
  5
132
330
80
100
AcDbEntity
  8
0
 62
     0
100
AcDbLine
 10
63.89999999999987
 20
4.499999999999843
 30
102.3999999999997
 11
63.89999999999987
 21
1.700000000000119
 31
102.3999999999997
  0
LINE
  5
133
330
80
100
AcDbEntity
  8
0
 62
     0
100
AcDbLine
 10
63.90000000000067
 20
4.499999999999843
 30
3.599999999999995
 11
63.89999999999987
 21
4.499999999999843
 31
102.3999999999997
  0
LINE
  5
134
330
80
100
AcDbEntity
  8
0
 62
     0
100
AcDbLine
 10
63.90000000000067
 20
4.499999999999843
 30
3.599999999999995
 11
63.89999999999995
 21
1.700000000000119
 31
3.599999999999995
  0
POLYLINE
  5
135
330
80
100
AcDbEntity
  8
0
 62
     0
100
AcDbPolyFaceMesh
 66
     1
 10
0.0
 20
0.0
 30
0.0
 70
    64
 71
     8
 72
     8
1001
ACAD_MATERIAL_MAPPER
1070
     1
1070
     1
1070
     1
1011
-0.0000000000000003
1021
0.0
1031
-0.0000000000000001
1011
-2.540000000000001
1021
0.0
1031
-0.0000000000000001
1011
-0.0000000000000003
1021
0.0
1031
2.54
1011
-0.0000000000000003
1021
1.0
1031
-0.0000000000000001
  0
VERTEX
  5
136
330
135
100
AcDbEntity
  8
0
 62
     0
100
AcDbVertex
100
AcDbPolyFaceMeshVertex
 10
0.0
 20
4.499999999999699
 30
0.0
 70
   192
  0
VERTEX
  5
137
330
135
100
AcDbEntity
  8
0
 62
     0
100
AcDbVertex
100
AcDbPolyFaceMeshVertex
 10
3.600000000000264
 20
4.499999999999699
 30
3.600000000000001
 70
   192
  0
VERTEX
  5
138
330
135
100
AcDbEntity
  8
0
 62
     0
100
AcDbVertex
100
AcDbPolyFaceMeshVertex
 10
67.50000000000021
 20
4.499999999999699
 30
0.0
 70
   192
  0
VERTEX
  5
139
330
135
100
AcDbEntity
  8
0
 62
     0
100
AcDbVertex
100
AcDbPolyFaceMeshVertex
 10
0.0
 20
4.499999999999699
 30
106.0
 70
   192
  0
VERTEX
  5
13A
330
135
100
AcDbEntity
  8
0
 62
     0
100
AcDbVertex
100
AcDbPolyFaceMeshVertex
 10
63.90000000000067
 20
4.499999999999843
 30
3.599999999999995
 70
   192
  0
VERTEX
  5
13B
330
135
100
AcDbEntity
  8
0
 62
     0
100
AcDbVertex
100
AcDbPolyFaceMeshVertex
 10
3.600000000000246
 20
4.499999999999699
 30
102.3999999999997
 70
   192
  0
VERTEX
  5
13C
330
135
100
AcDbEntity
  8
0
 62
     0
100
AcDbVertex
100
AcDbPolyFaceMeshVertex
 10
67.50000000000021
 20
4.499999999999699
 30
106.0
 70
   192
  0
VERTEX
  5
13D
330
135
100
AcDbEntity
  8
0
 62
     0
100
AcDbVertex
100
AcDbPolyFaceMeshVertex
 10
63.89999999999987
 20
4.499999999999843
 30
102.3999999999997
 70
   192
  0
VERTEX
  5
13E
330
135
100
AcDbEntity
  8
0
 62
     0
100
AcDbFaceRecord
 10
0.0
 20
0.0
 30
0.0
 70
   128
 71
    -1
 72
    -2
 73
     3
  0
VERTEX
  5
13F
330
135
100
AcDbEntity
  8
0
 62
     0
100
AcDbFaceRecord
 10
0.0
 20
0.0
 30
0.0
 70
   128
 71
    -2
 72
     1
 73
    -4
  0
VERTEX
  5
140
330
135
100
AcDbEntity
  8
0
 62
     0
100
AcDbFaceRecord
 10
0.0
 20
0.0
 30
0.0
 70
   128
 71
    -3
 72
     2
 73
    -5
  0
VERTEX
  5
141
330
135
100
AcDbEntity
  8
0
 62
     0
100
AcDbFaceRecord
 10
0.0
 20
0.0
 30
0.0
 70
   128
 71
    -2
 72
    -4
 73
     6
  0
VERTEX
  5
142
330
135
100
AcDbEntity
  8
0
 62
     0
100
AcDbFaceRecord
 10
0.0
 20
0.0
 30
0.0
 70
   128
 71
    -5
 72
     7
 73
    -3
  0
VERTEX
  5
143
330
135
100
AcDbEntity
  8
0
 62
     0
100
AcDbFaceRecord
 10
0.0
 20
0.0
 30
0.0
 70
   128
 71
    -7
 72
     5
 73
    -8
  0
VERTEX
  5
144
330
135
100
AcDbEntity
  8
0
 62
     0
100
AcDbFaceRecord
 10
0.0
 20
0.0
 30
0.0
 70
   128
 71
    -7
 72
     8
 73
    -6
  0
VERTEX
  5
145
330
135
100
AcDbEntity
  8
0
 62
     0
100
AcDbFaceRecord
 10
0.0
 20
0.0
 30
0.0
 70
   128
 71
    -7
 72
    -6
 73
     4
  0
SEQEND
  5
146
330
135
100
AcDbEntity
  8
0
 62
     0
  0
LINE
  5
147
330
80
100
AcDbEntity
  8
0
 62
     0
100
AcDbLine
 10
0.0
 20
4.499999999999699
 30
0.0
 11
0.0
 21
4.499999999999699
 31
106.0
  0
LINE
  5
148
330
80
100
AcDbEntity
  8
0
 62
     0
100
AcDbLine
 10
67.50000000000021
 20
4.499999999999699
 30
106.0
 11
0.0
 21
4.499999999999699
 31
106.0
  0
LINE
  5
149
330
80
100
AcDbEntity
  8
0
 62
     0
100
AcDbLine
 10
67.50000000000021
 20
4.499999999999699
 30
0.0
 11
67.50000000000021
 21
4.499999999999699
 31
106.0
  0
LINE
  5
14A
330
80
100
AcDbEntity
  8
0
 62
     0
100
AcDbLine
 10
0.0
 20
4.499999999999699
 30
0.0
 11
67.50000000000021
 21
4.499999999999699
 31
0.0
  0
LINE
  5
14B
330
80
100
AcDbEntity
  8
0
 62
     0
100
AcDbLine
 10
63.90000000000067
 20
4.499999999999843
 30
3.599999999999995
 11
63.89999999999987
 21
4.499999999999843
 31
102.3999999999997
  0
LINE
  5
14C
330
80
100
AcDbEntity
  8
0
 62
     0
100
AcDbLine
 10
3.600000000000246
 20
4.499999999999699
 30
102.3999999999997
 11
63.89999999999987
 21
4.499999999999843
 31
102.3999999999997
  0
LINE
  5
14D
330
80
100
AcDbEntity
  8
0
 62
     0
100
AcDbLine
 10
3.600000000000264
 20
4.499999999999699
 30
3.600000000000001
 11
3.600000000000246
 21
4.499999999999699
 31
102.3999999999997
  0
LINE
  5
14E
330
80
100
AcDbEntity
  8
0
 62
     0
100
AcDbLine
 10
3.600000000000264
 20
4.499999999999699
 30
3.600000000000001
 11
63.90000000000067
 21
4.499999999999843
 31
3.599999999999995
  0
POLYLINE
  5
14F
330
80
100
AcDbEntity
  8
0
 62
     0
100
AcDbPolyFaceMesh
 66
     1
 10
0.0
 20
0.0
 30
0.0
 70
    64
 71
     4
 72
     2
1001
ACAD_MATERIAL_MAPPER
1070
     1
1070
     1
1070
     1
1011
0.0
1021
0.0000000000000215
1031
0.0
1011
0.0
1021
2.540000000000022
1031
0.0
1011
0.0
1021
0.0000000000000215
1031
2.54
1011
1.0
1021
0.0000000000000215
1031
0.0
  0
VERTEX
  5
150
330
14F
100
AcDbEntity
  8
0
 62
     0
100
AcDbVertex
100
AcDbPolyFaceMeshVertex
 10
67.50000000000021
 20
4.499999999999699
 30
0.0
 70
   192
  0
VERTEX
  5
151
330
14F
100
AcDbEntity
  8
0
 62
     0
100
AcDbVertex
100
AcDbPolyFaceMeshVertex
 10
67.50000000000021
 20
0.0
 30
106.0
 70
   192
  0
VERTEX
  5
152
330
14F
100
AcDbEntity
  8
0
 62
     0
100
AcDbVertex
100
AcDbPolyFaceMeshVertex
 10
67.50000000000021
 20
0.0
 30
0.0
 70
   192
  0
VERTEX
  5
153
330
14F
100
AcDbEntity
  8
0
 62
     0
100
AcDbVertex
100
AcDbPolyFaceMeshVertex
 10
67.50000000000021
 20
4.499999999999699
 30
106.0
 70
   192
  0
VERTEX
  5
154
330
14F
100
AcDbEntity
  8
0
 62
     0
100
AcDbFaceRecord
 10
0.0
 20
0.0
 30
0.0
 70
   128
 71
    -1
 72
     2
 73
     3
  0
VERTEX
  5
155
330
14F
100
AcDbEntity
  8
0
 62
     0
100
AcDbFaceRecord
 10
0.0
 20
0.0
 30
0.0
 70
   128
 71
    -2
 72
     1
 73
     4
  0
SEQEND
  5
156
330
14F
100
AcDbEntity
  8
0
 62
     0
  0
LINE
  5
157
330
80
100
AcDbEntity
  8
0
 62
     0
100
AcDbLine
 10
67.50000000000021
 20
0.0
 30
0.0
 11
67.50000000000021
 21
4.499999999999699
 31
0.0
  0
LINE
  5
158
330
80
100
AcDbEntity
  8
0
 62
     0
100
AcDbLine
 10
67.50000000000021
 20
4.499999999999699
 30
0.0
 11
67.50000000000021
 21
4.499999999999699
 31
106.0
  0
LINE
  5
159
330
80
100
AcDbEntity
  8
0
 62
     0
100
AcDbLine
 10
67.50000000000021
 20
0.0
 30
106.0
 11
67.50000000000021
 21
4.499999999999699
 31
106.0
  0
LINE
  5
15A
330
80
100
AcDbEntity
  8
0
 62
     0
100
AcDbLine
 10
67.50000000000021
 20
0.0
 30
0.0
 11
67.50000000000021
 21
0.0
 31
106.0
  0
POLYLINE
  5
15B
330
80
100
AcDbEntity
  8
0
 62
     0
100
AcDbPolyFaceMesh
 66
     1
 10
0.0
 20
0.0
 30
0.0
 70
    64
 71
     4
 72
     2
1001
ACAD_MATERIAL_MAPPER
1070
     1
1070
     1
1070
     1
1011
0.0
1021
0.0000000000003685
1031
0.0000000000000289
1011
0.0
1021
-2.539999999999631
1031
0.0000000000000289
1011
0.0
1021
0.0000000000003685
1031
2.540000000000029
1011
1.0
1021
0.0000000000003685
1031
0.0000000000000289
  0
VERTEX
  5
15C
330
15B
100
AcDbEntity
  8
0
 62
     0
100
AcDbVertex
100
AcDbPolyFaceMeshVertex
 10
63.00000000000004
 20
1.699999999999974
 30
101.4999999999999
 70
   192
  0
VERTEX
  5
15D
330
15B
100
AcDbEntity
  8
0
 62
     0
100
AcDbVertex
100
AcDbPolyFaceMeshVertex
 10
63.00000000000015
 20
0.0
 30
4.499999999999999
 70
   192
  0
VERTEX
  5
15E
330
15B
100
AcDbEntity
  8
0
 62
     0
100
AcDbVertex
100
AcDbPolyFaceMeshVertex
 10
63.00000000000004
 20
0.0
 30
101.4999999999999
 70
   192
  0
VERTEX
  5
15F
330
15B
100
AcDbEntity
  8
0
 62
     0
100
AcDbVertex
100
AcDbPolyFaceMeshVertex
 10
63.00000000000015
 20
1.699999999999974
 30
4.499999999999999
 70
   192
  0
VERTEX
  5
160
330
15B
100
AcDbEntity
  8
0
 62
     0
100
AcDbFaceRecord
 10
0.0
 20
0.0
 30
0.0
 70
   128
 71
    -1
 72
     2
 73
     3
  0
VERTEX
  5
161
330
15B
100
AcDbEntity
  8
0
 62
     0
100
AcDbFaceRecord
 10
0.0
 20
0.0
 30
0.0
 70
   128
 71
    -2
 72
     1
 73
     4
  0
SEQEND
  5
162
330
15B
100
AcDbEntity
  8
0
 62
     0
  0
LINE
  5
163
330
80
100
AcDbEntity
  8
0
 62
     0
100
AcDbLine
 10
63.00000000000015
 20
0.0
 30
4.499999999999999
 11
63.00000000000004
 21
0.0
 31
101.4999999999999
  0
LINE
  5
164
330
80
100
AcDbEntity
  8
0
 62
     0
100
AcDbLine
 10
63.00000000000004
 20
1.699999999999974
 30
101.4999999999999
 11
63.00000000000004
 21
0.0
 31
101.4999999999999
  0
LINE
  5
165
330
80
100
AcDbEntity
  8
0
 62
     0
100
AcDbLine
 10
63.00000000000015
 20
1.699999999999974
 30
4.499999999999999
 11
63.00000000000004
 21
1.699999999999974
 31
101.4999999999999
  0
LINE
  5
166
330
80
100
AcDbEntity
  8
0
 62
     0
100
AcDbLine
 10
63.00000000000015
 20
1.699999999999974
 30
4.499999999999999
 11
63.00000000000015
 21
0.0
 31
4.499999999999999
  0
POLYLINE
  5
167
330
80
100
AcDbEntity
  8
0
 62
     0
100
AcDbPolyFaceMesh
 66
     1
 10
0.0
 20
0.0
 30
0.0
 70
    64
 71
     8
 72
     8
1001
ACAD_MATERIAL_MAPPER
1070
     1
1070
     1
1070
     1
1011
0.0
1021
0.0
1031
0.0
1011
2.54
1021
0.0
1031
0.0
1011
0.0
1021
0.0
1031
2.54
1011
0.0
1021
1.0
1031
0.0
  0
VERTEX
  5
168
330
167
100
AcDbEntity
  8
0
 62
     0
100
AcDbVertex
100
AcDbPolyFaceMeshVertex
 10
67.50000000000021
 20
0.0
 30
0.0
 70
   192
  0
VERTEX
  5
169
330
167
100
AcDbEntity
  8
0
 62
     0
100
AcDbVertex
100
AcDbPolyFaceMeshVertex
 10
63.00000000000015
 20
0.0
 30
4.499999999999999
 70
   192
  0
VERTEX
  5
16A
330
167
100
AcDbEntity
  8
0
 62
     0
100
AcDbVertex
100
AcDbPolyFaceMeshVertex
 10
0.0
 20
0.0
 30
0.0
 70
   192
  0
VERTEX
  5
16B
330
167
100
AcDbEntity
  8
0
 62
     0
100
AcDbVertex
100
AcDbPolyFaceMeshVertex
 10
67.50000000000021
 20
0.0
 30
106.0
 70
   192
  0
VERTEX
  5
16C
330
167
100
AcDbEntity
  8
0
 62
     0
100
AcDbVertex
100
AcDbPolyFaceMeshVertex
 10
63.00000000000004
 20
0.0
 30
101.4999999999999
 70
   192
  0
VERTEX
  5
16D
330
167
100
AcDbEntity
  8
0
 62
     0
100
AcDbVertex
100
AcDbPolyFaceMeshVertex
 10
4.50000000000006
 20
0.0
 30
101.4999999999999
 70
   192
  0
VERTEX
  5
16E
330
167
100
AcDbEntity
  8
0
 62
     0
100
AcDbVertex
100
AcDbPolyFaceMeshVertex
 10
4.50000000000006
 20
0.0
 30
4.5
 70
   192
  0
VERTEX
  5
16F
330
167
100
AcDbEntity
  8
0
 62
     0
100
AcDbVertex
100
AcDbPolyFaceMeshVertex
 10
0.0
 20
0.0
 30
106.0
 70
   192
  0
VERTEX
  5
170
330
167
100
AcDbEntity
  8
0
 62
     0
100
AcDbFaceRecord
 10
0.0
 20
0.0
 30
0.0
 70
   128
 71
    -1
 72
    -2
 73
     3
  0
VERTEX
  5
171
330
167
100
AcDbEntity
  8
0
 62
     0
100
AcDbFaceRecord
 10
0.0
 20
0.0
 30
0.0
 70
   128
 71
    -2
 72
     1
 73
    -4
  0
VERTEX
  5
172
330
167
100
AcDbEntity
  8
0
 62
     0
100
AcDbFaceRecord
 10
0.0
 20
0.0
 30
0.0
 70
   128
 71
    -2
 72
    -4
 73
     5
  0
VERTEX
  5
173
330
167
100
AcDbEntity
  8
0
 62
     0
100
AcDbFaceRecord
 10
0.0
 20
0.0
 30
0.0
 70
   128
 71
    -5
 72
    -4
 73
     6
  0
VERTEX
  5
174
330
167
100
AcDbEntity
  8
0
 62
     0
100
AcDbFaceRecord
 10
0.0
 20
0.0
 30
0.0
 70
   128
 71
    -3
 72
    -7
 73
     8
  0
VERTEX
  5
175
330
167
100
AcDbEntity
  8
0
 62
     0
100
AcDbFaceRecord
 10
0.0
 20
0.0
 30
0.0
 70
   128
 71
    -7
 72
    -3
 73
     2
  0
VERTEX
  5
176
330
167
100
AcDbEntity
  8
0
 62
     0
100
AcDbFaceRecord
 10
0.0
 20
0.0
 30
0.0
 70
   128
 71
    -8
 72
     7
 73
    -6
  0
VERTEX
  5
177
330
167
100
AcDbEntity
  8
0
 62
     0
100
AcDbFaceRecord
 10
0.0
 20
0.0
 30
0.0
 70
   128
 71
    -8
 72
    -6
 73
     4
  0
SEQEND
  5
178
330
167
100
AcDbEntity
  8
0
 62
     0
  0
LINE
  5
179
330
80
100
AcDbEntity
  8
0
 62
     0
100
AcDbLine
 10
0.0
 20
0.0
 30
106.0
 11
67.50000000000021
 21
0.0
 31
106.0
  0
LINE
  5
17A
330
80
100
AcDbEntity
  8
0
 62
     0
100
AcDbLine
 10
0.0
 20
0.0
 30
0.0
 11
0.0
 21
0.0
 31
106.0
  0
LINE
  5
17B
330
80
100
AcDbEntity
  8
0
 62
     0
100
AcDbLine
 10
67.50000000000021
 20
0.0
 30
0.0
 11
0.0
 21
0.0
 31
0.0
  0
LINE
  5
17C
330
80
100
AcDbEntity
  8
0
 62
     0
100
AcDbLine
 10
67.50000000000021
 20
0.0
 30
0.0
 11
67.50000000000021
 21
0.0
 31
106.0
  0
LINE
  5
17D
330
80
100
AcDbEntity
  8
0
 62
     0
100
AcDbLine
 10
4.50000000000006
 20
0.0
 30
101.4999999999999
 11
63.00000000000004
 21
0.0
 31
101.4999999999999
  0
LINE
  5
17E
330
80
100
AcDbEntity
  8
0
 62
     0
100
AcDbLine
 10
63.00000000000015
 20
0.0
 30
4.499999999999999
 11
63.00000000000004
 21
0.0
 31
101.4999999999999
  0
LINE
  5
17F
330
80
100
AcDbEntity
  8
0
 62
     0
100
AcDbLine
 10
63.00000000000015
 20
0.0
 30
4.499999999999999
 11
4.50000000000006
 21
0.0
 31
4.5
  0
LINE
  5
180
330
80
100
AcDbEntity
  8
0
 62
     0
100
AcDbLine
 10
4.50000000000006
 20
0.0
 30
4.5
 11
4.50000000000006
 21
0.0
 31
101.4999999999999
  0
POLYLINE
  5
181
330
80
100
AcDbEntity
  8
0
 62
     0
100
AcDbPolyFaceMesh
 66
     1
 10
0.0
 20
0.0
 30
0.0
 70
    64
 71
     4
 72
     2
1001
ACAD_MATERIAL_MAPPER
1070
     1
1070
     1
1070
     1
1011
0.0
1021
0.0
1031
0.0
1011
2.54
1021
0.0
1031
0.0
1011
0.0
1021
2.54
1031
0.0
1011
0.0
1021
0.0
1031
1.0
  0
VERTEX
  5
182
330
181
100
AcDbEntity
  8
0
 62
     0
100
AcDbVertex
100
AcDbPolyFaceMeshVertex
 10
67.50000000000021
 20
0.0
 30
106.0
 70
   192
  0
VERTEX
  5
183
330
181
100
AcDbEntity
  8
0
 62
     0
100
AcDbVertex
100
AcDbPolyFaceMeshVertex
 10
0.0
 20
4.499999999999699
 30
106.0
 70
   192
  0
VERTEX
  5
184
330
181
100
AcDbEntity
  8
0
 62
     0
100
AcDbVertex
100
AcDbPolyFaceMeshVertex
 10
0.0
 20
0.0
 30
106.0
 70
   192
  0
VERTEX
  5
185
330
181
100
AcDbEntity
  8
0
 62
     0
100
AcDbVertex
100
AcDbPolyFaceMeshVertex
 10
67.50000000000021
 20
4.499999999999699
 30
106.0
 70
   192
  0
VERTEX
  5
186
330
181
100
AcDbEntity
  8
0
 62
     0
100
AcDbFaceRecord
 10
0.0
 20
0.0
 30
0.0
 70
   128
 71
    -1
 72
     2
 73
     3
  0
VERTEX
  5
187
330
181
100
AcDbEntity
  8
0
 62
     0
100
AcDbFaceRecord
 10
0.0
 20
0.0
 30
0.0
 70
   128
 71
    -2
 72
     1
 73
     4
  0
SEQEND
  5
188
330
181
100
AcDbEntity
  8
0
 62
     0
  0
LINE
  5
189
330
80
100
AcDbEntity
  8
0
 62
     0
100
AcDbLine
 10
67.50000000000021
 20
4.499999999999699
 30
106.0
 11
0.0
 21
4.499999999999699
 31
106.0
  0
LINE
  5
18A
330
80
100
AcDbEntity
  8
0
 62
     0
100
AcDbLine
 10
0.0
 20
0.0
 30
106.0
 11
0.0
 21
4.499999999999699
 31
106.0
  0
LINE
  5
18B
330
80
100
AcDbEntity
  8
0
 62
     0
100
AcDbLine
 10
0.0
 20
0.0
 30
106.0
 11
67.50000000000021
 21
0.0
 31
106.0
  0
LINE
  5
18C
330
80
100
AcDbEntity
  8
0
 62
     0
100
AcDbLine
 10
67.50000000000021
 20
0.0
 30
106.0
 11
67.50000000000021
 21
4.499999999999699
 31
106.0
  0
POLYLINE
  5
18D
330
80
100
AcDbEntity
  8
0
 62
     0
100
AcDbPolyFaceMesh
 66
     1
 10
0.0
 20
0.0
 30
0.0
 70
    64
 71
     8
 72
     8
1001
ACAD_MATERIAL_MAPPER
1070
     1
1070
     1
1070
     1
1011
0.0000000000000045
1021
0.0
1031
0.0000000000000006
1011
-2.539999999999995
1021
0.0
1031
0.0000000000000005
1011
0.0000000000000032
1021
0.0
1031
2.540000000000002
1011
0.0000000000000045
1021
1.0
1031
0.0000000000000006
  0
VERTEX
  5
18E
330
18D
100
AcDbEntity
  8
0
 62
     0
100
AcDbVertex
100
AcDbPolyFaceMeshVertex
 10
3.600000000000264
 20
1.699999999999974
 30
3.600000000000001
 70
   192
  0
VERTEX
  5
18F
330
18D
100
AcDbEntity
  8
0
 62
     0
100
AcDbVertex
100
AcDbPolyFaceMeshVertex
 10
4.50000000000006
 20
1.699999999999974
 30
4.5
 70
   192
  0
VERTEX
  5
190
330
18D
100
AcDbEntity
  8
0
 62
     0
100
AcDbVertex
100
AcDbPolyFaceMeshVertex
 10
63.00000000000015
 20
1.699999999999974
 30
4.499999999999999
 70
   192
  0
VERTEX
  5
191
330
18D
100
AcDbEntity
  8
0
 62
     0
100
AcDbVertex
100
AcDbPolyFaceMeshVertex
 10
3.600000000000246
 20
1.699999999999974
 30
102.3999999999997
 70
   192
  0
VERTEX
  5
192
330
18D
100
AcDbEntity
  8
0
 62
     0
100
AcDbVertex
100
AcDbPolyFaceMeshVertex
 10
4.50000000000006
 20
1.699999999999974
 30
101.4999999999999
 70
   192
  0
VERTEX
  5
193
330
18D
100
AcDbEntity
  8
0
 62
     0
100
AcDbVertex
100
AcDbPolyFaceMeshVertex
 10
63.89999999999987
 20
1.700000000000119
 30
102.3999999999997
 70
   192
  0
VERTEX
  5
194
330
18D
100
AcDbEntity
  8
0
 62
     0
100
AcDbVertex
100
AcDbPolyFaceMeshVertex
 10
63.89999999999995
 20
1.700000000000119
 30
3.599999999999995
 70
   192
  0
VERTEX
  5
195
330
18D
100
AcDbEntity
  8
0
 62
     0
100
AcDbVertex
100
AcDbPolyFaceMeshVertex
 10
63.00000000000004
 20
1.699999999999974
 30
101.4999999999999
 70
   192
  0
VERTEX
  5
196
330
18D
100
AcDbEntity
  8
0
 62
     0
100
AcDbFaceRecord
 10
0.0
 20
0.0
 30
0.0
 70
   128
 71
    -1
 72
     2
 73
    -3
  0
VERTEX
  5
197
330
18D
100
AcDbEntity
  8
0
 62
     0
100
AcDbFaceRecord
 10
0.0
 20
0.0
 30
0.0
 70
   128
 71
    -2
 72
     1
 73
    -4
  0
VERTEX
  5
198
330
18D
100
AcDbEntity
  8
0
 62
     0
100
AcDbFaceRecord
 10
0.0
 20
0.0
 30
0.0
 70
   128
 71
    -2
 72
    -4
 73
     5
  0
VERTEX
  5
199
330
18D
100
AcDbEntity
  8
0
 62
     0
100
AcDbFaceRecord
 10
0.0
 20
0.0
 30
0.0
 70
   128
 71
    -5
 72
     4
 73
    -6
  0
VERTEX
  5
19A
330
18D
100
AcDbEntity
  8
0
 62
     0
100
AcDbFaceRecord
 10
0.0
 20
0.0
 30
0.0
 70
   128
 71
    -7
 72
    -3
 73
     6
  0
VERTEX
  5
19B
330
18D
100
AcDbEntity
  8
0
 62
     0
100
AcDbFaceRecord
 10
0.0
 20
0.0
 30
0.0
 70
   128
 71
    -3
 72
     7
 73
    -1
  0
VERTEX
  5
19C
330
18D
100
AcDbEntity
  8
0
 62
     0
100
AcDbFaceRecord
 10
0.0
 20
0.0
 30
0.0
 70
   128
 71
    -6
 72
     3
 73
    -8
  0
VERTEX
  5
19D
330
18D
100
AcDbEntity
  8
0
 62
     0
100
AcDbFaceRecord
 10
0.0
 20
0.0
 30
0.0
 70
   128
 71
    -6
 72
     8
 73
    -5
  0
SEQEND
  5
19E
330
18D
100
AcDbEntity
  8
0
 62
     0
  0
LINE
  5
19F
330
80
100
AcDbEntity
  8
0
 62
     0
100
AcDbLine
 10
3.600000000000246
 20
1.699999999999974
 30
102.3999999999997
 11
63.89999999999987
 21
1.700000000000119
 31
102.3999999999997
  0
LINE
  5
1A0
330
80
100
AcDbEntity
  8
0
 62
     0
100
AcDbLine
 10
63.89999999999995
 20
1.700000000000119
 30
3.599999999999995
 11
63.89999999999987
 21
1.700000000000119
 31
102.3999999999997
  0
LINE
  5
1A1
330
80
100
AcDbEntity
  8
0
 62
     0
100
AcDbLine
 10
63.89999999999995
 20
1.700000000000119
 30
3.599999999999995
 11
3.600000000000264
 21
1.699999999999974
 31
3.600000000000001
  0
LINE
  5
1A2
330
80
100
AcDbEntity
  8
0
 62
     0
100
AcDbLine
 10
3.600000000000264
 20
1.699999999999974
 30
3.600000000000001
 11
3.600000000000246
 21
1.699999999999974
 31
102.3999999999997
  0
LINE
  5
1A3
330
80
100
AcDbEntity
  8
0
 62
     0
100
AcDbLine
 10
63.00000000000015
 20
1.699999999999974
 30
4.499999999999999
 11
63.00000000000004
 21
1.699999999999974
 31
101.4999999999999
  0
LINE
  5
1A4
330
80
100
AcDbEntity
  8
0
 62
     0
100
AcDbLine
 10
4.50000000000006
 20
1.699999999999974
 30
101.4999999999999
 11
63.00000000000004
 21
1.699999999999974
 31
101.4999999999999
  0
LINE
  5
1A5
330
80
100
AcDbEntity
  8
0
 62
     0
100
AcDbLine
 10
4.50000000000006
 20
1.699999999999974
 30
4.5
 11
4.50000000000006
 21
1.699999999999974
 31
101.4999999999999
  0
LINE
  5
1A6
330
80
100
AcDbEntity
  8
0
 62
     0
100
AcDbLine
 10
63.00000000000015
 20
1.699999999999974
 30
4.499999999999999
 11
4.50000000000006
 21
1.699999999999974
 31
4.5
  0
POLYLINE
  5
1A7
330
80
100
AcDbEntity
  8
0
 62
     0
100
AcDbPolyFaceMesh
 66
     1
 10
0.0
 20
0.0
 30
0.0
 70
    64
 71
     4
 72
     2
1001
ACAD_MATERIAL_MAPPER
1070
     1
1070
     1
1070
     1
1011
0.0000000000000299
1021
-0.0000000000000005
1031
0.0
1011
-2.53999999999997
1021
-0.0000000000000005
1031
0.0
1011
0.0000000000000299
1021
2.539999999999999
1031
0.0
1011
0.0000000000000299
1021
-0.0000000000000005
1031
1.0
  0
VERTEX
  5
1A8
330
1A7
100
AcDbEntity
  8
0
 62
     0
100
AcDbVertex
100
AcDbPolyFaceMeshVertex
 10
63.89999999999987
 20
4.499999999999843
 30
102.3999999999997
 70
   192
  0
VERTEX
  5
1A9
330
1A7
100
AcDbEntity
  8
0
 62
     0
100
AcDbVertex
100
AcDbPolyFaceMeshVertex
 10
3.600000000000246
 20
1.699999999999974
 30
102.3999999999997
 70
   192
  0
VERTEX
  5
1AA
330
1A7
100
AcDbEntity
  8
0
 62
     0
100
AcDbVertex
100
AcDbPolyFaceMeshVertex
 10
3.600000000000246
 20
4.499999999999699
 30
102.3999999999997
 70
   192
  0
VERTEX
  5
1AB
330
1A7
100
AcDbEntity
  8
0
 62
     0
100
AcDbVertex
100
AcDbPolyFaceMeshVertex
 10
63.89999999999987
 20
1.700000000000119
 30
102.3999999999997
 70
   192
  0
VERTEX
  5
1AC
330
1A7
100
AcDbEntity
  8
0
 62
     0
100
AcDbFaceRecord
 10
0.0
 20
0.0
 30
0.0
 70
   128
 71
    -1
 72
     2
 73
     3
  0
VERTEX
  5
1AD
330
1A7
100
AcDbEntity
  8
0
 62
     0
100
AcDbFaceRecord
 10
0.0
 20
0.0
 30
0.0
 70
   128
 71
    -2
 72
     1
 73
     4
  0
SEQEND
  5
1AE
330
1A7
100
AcDbEntity
  8
0
 62
     0
  0
LINE
  5
1AF
330
80
100
AcDbEntity
  8
0
 62
     0
100
AcDbLine
 10
3.600000000000246
 20
1.699999999999974
 30
102.3999999999997
 11
63.89999999999987
 21
1.700000000000119
 31
102.3999999999997
  0
LINE
  5
1B0
330
80
100
AcDbEntity
  8
0
 62
     0
100
AcDbLine
 10
3.600000000000246
 20
4.499999999999699
 30
102.3999999999997
 11
3.600000000000246
 21
1.699999999999974
 31
102.3999999999997
  0
LINE
  5
1B1
330
80
100
AcDbEntity
  8
0
 62
     0
100
AcDbLine
 10
3.600000000000246
 20
4.499999999999699
 30
102.3999999999997
 11
63.89999999999987
 21
4.499999999999843
 31
102.3999999999997
  0
LINE
  5
1B2
330
80
100
AcDbEntity
  8
0
 62
     0
100
AcDbLine
 10
63.89999999999987
 20
4.499999999999843
 30
102.3999999999997
 11
63.89999999999987
 21
1.700000000000119
 31
102.3999999999997
  0
POLYLINE
  5
1B3
330
80
100
AcDbEntity
  8
0
 62
     0
100
AcDbPolyFaceMesh
 66
     1
 10
0.0
 20
0.0
 30
0.0
 70
    64
 71
     4
 72
     2
1001
ACAD_MATERIAL_MAPPER
1070
     1
1070
     1
1070
     1
1011
0.0000000000000297
1021
0.0
1031
0.0
1011
-2.53999999999997
1021
0.0
1031
0.0
1011
0.0000000000000297
1021
2.54
1031
0.0
1011
0.0000000000000297
1021
0.0
1031
1.0
  0
VERTEX
  5
1B4
330
1B3
100
AcDbEntity
  8
0
 62
     0
100
AcDbVertex
100
AcDbPolyFaceMeshVertex
 10
63.00000000000004
 20
1.699999999999974
 30
101.4999999999999
 70
   192
  0
VERTEX
  5
1B5
330
1B3
100
AcDbEntity
  8
0
 62
     0
100
AcDbVertex
100
AcDbPolyFaceMeshVertex
 10
4.50000000000006
 20
0.0
 30
101.4999999999999
 70
   192
  0
VERTEX
  5
1B6
330
1B3
100
AcDbEntity
  8
0
 62
     0
100
AcDbVertex
100
AcDbPolyFaceMeshVertex
 10
4.50000000000006
 20
1.699999999999974
 30
101.4999999999999
 70
   192
  0
VERTEX
  5
1B7
330
1B3
100
AcDbEntity
  8
0
 62
     0
100
AcDbVertex
100
AcDbPolyFaceMeshVertex
 10
63.00000000000004
 20
0.0
 30
101.4999999999999
 70
   192
  0
VERTEX
  5
1B8
330
1B3
100
AcDbEntity
  8
0
 62
     0
100
AcDbFaceRecord
 10
0.0
 20
0.0
 30
0.0
 70
   128
 71
    -1
 72
     2
 73
     3
  0
VERTEX
  5
1B9
330
1B3
100
AcDbEntity
  8
0
 62
     0
100
AcDbFaceRecord
 10
0.0
 20
0.0
 30
0.0
 70
   128
 71
    -2
 72
     1
 73
     4
  0
SEQEND
  5
1BA
330
1B3
100
AcDbEntity
  8
0
 62
     0
  0
LINE
  5
1BB
330
80
100
AcDbEntity
  8
0
 62
     0
100
AcDbLine
 10
4.50000000000006
 20
1.699999999999974
 30
101.4999999999999
 11
4.50000000000006
 21
0.0
 31
101.4999999999999
  0
LINE
  5
1BC
330
80
100
AcDbEntity
  8
0
 62
     0
100
AcDbLine
 10
4.50000000000006
 20
1.699999999999974
 30
101.4999999999999
 11
63.00000000000004
 21
1.699999999999974
 31
101.4999999999999
  0
LINE
  5
1BD
330
80
100
AcDbEntity
  8
0
 62
     0
100
AcDbLine
 10
63.00000000000004
 20
1.699999999999974
 30
101.4999999999999
 11
63.00000000000004
 21
0.0
 31
101.4999999999999
  0
LINE
  5
1BE
330
80
100
AcDbEntity
  8
0
 62
     0
100
AcDbLine
 10
4.50000000000006
 20
0.0
 30
101.4999999999999
 11
63.00000000000004
 21
0.0
 31
101.4999999999999
  0
ENDBLK
  5
82
330
80
100
AcDbEntity
  8
0
100
AcDbBlockEnd
  0
BLOCK
  5
84
330
83
100
AcDbEntity
  8
0
100
AcDbBlockBegin
  2
GRUPO_3
 70
     0
 10
0.0
 20
0.0
 30
0.0
  3
GRUPO_3
  1

  0
POLYLINE
  5
1BF
330
83
100
AcDbEntity
  8
0
 62
     0
100
AcDbPolyFaceMesh
 66
     1
 10
0.0
 20
0.0
 30
0.0
 70
    64
 71
     8
 72
     8
1001
ACAD_MATERIAL_MAPPER
1070
     1
1070
     1
1070
     1
1011
0.0
1021
0.0
1031
0.0
1011
2.54
1021
0.0000000000000005
1031
0.0
1011
0.0
1021
2.54
1031
0.0
1011
0.0
1021
0.0
1031
1.0
  0
VERTEX
  5
1C0
330
1BF
100
AcDbEntity
  8
0
 62
     0
100
AcDbVertex
100
AcDbPolyFaceMeshVertex
 10
0.0
 20
0.0
 30
0.0
 70
   192
  0
VERTEX
  5
1C1
330
1BF
100
AcDbEntity
  8
0
 62
     0
100
AcDbVertex
100
AcDbPolyFaceMeshVertex
 10
6.000000000000007
 20
5.999999999999989
 30
0.0
 70
   192
  0
VERTEX
  5
1C2
330
1BF
100
AcDbEntity
  8
0
 62
     0
100
AcDbVertex
100
AcDbPolyFaceMeshVertex
 10
0.0
 20
32.0
 30
0.0
 70
   192
  0
VERTEX
  5
1C3
330
1BF
100
AcDbEntity
  8
0
 62
     0
100
AcDbVertex
100
AcDbPolyFaceMeshVertex
 10
109.4
 20
0.0
 30
0.0
 70
   192
  0
VERTEX
  5
1C4
330
1BF
100
AcDbEntity
  8
0
 62
     0
100
AcDbVertex
100
AcDbPolyFaceMeshVertex
 10
103.4
 20
5.999999999999989
 30
0.0
 70
   192
  0
VERTEX
  5
1C5
330
1BF
100
AcDbEntity
  8
0
 62
     0
100
AcDbVertex
100
AcDbPolyFaceMeshVertex
 10
103.4
 20
25.99999999999999
 30
0.0
 70
   192
  0
VERTEX
  5
1C6
330
1BF
100
AcDbEntity
  8
0
 62
     0
100
AcDbVertex
100
AcDbPolyFaceMeshVertex
 10
6.000000000000007
 20
25.99999999999999
 30
0.0
 70
   192
  0
VERTEX
  5
1C7
330
1BF
100
AcDbEntity
  8
0
 62
     0
100
AcDbVertex
100
AcDbPolyFaceMeshVertex
 10
109.4
 20
32.0
 30
0.0
 70
   192
  0
VERTEX
  5
1C8
330
1BF
100
AcDbEntity
  8
0
 62
     0
100
AcDbFaceRecord
 10
0.0
 20
0.0
 30
0.0
 70
   128
 71
    -1
 72
    -2
 73
     3
  0
VERTEX
  5
1C9
330
1BF
100
AcDbEntity
  8
0
 62
     0
100
AcDbFaceRecord
 10
0.0
 20
0.0
 30
0.0
 70
   128
 71
    -2
 72
     1
 73
    -4
  0
VERTEX
  5
1CA
330
1BF
100
AcDbEntity
  8
0
 62
     0
100
AcDbFaceRecord
 10
0.0
 20
0.0
 30
0.0
 70
   128
 71
    -2
 72
    -4
 73
     5
  0
VERTEX
  5
1CB
330
1BF
100
AcDbEntity
  8
0
 62
     0
100
AcDbFaceRecord
 10
0.0
 20
0.0
 30
0.0
 70
   128
 71
    -5
 72
    -4
 73
     6
  0
VERTEX
  5
1CC
330
1BF
100
AcDbEntity
  8
0
 62
     0
100
AcDbFaceRecord
 10
0.0
 20
0.0
 30
0.0
 70
   128
 71
    -3
 72
    -7
 73
     8
  0
VERTEX
  5
1CD
330
1BF
100
AcDbEntity
  8
0
 62
     0
100
AcDbFaceRecord
 10
0.0
 20
0.0
 30
0.0
 70
   128
 71
    -7
 72
    -3
 73
     2
  0
VERTEX
  5
1CE
330
1BF
100
AcDbEntity
  8
0
 62
     0
100
AcDbFaceRecord
 10
0.0
 20
0.0
 30
0.0
 70
   128
 71
    -8
 72
     7
 73
    -6
  0
VERTEX
  5
1CF
330
1BF
100
AcDbEntity
  8
0
 62
     0
100
AcDbFaceRecord
 10
0.0
 20
0.0
 30
0.0
 70
   128
 71
    -8
 72
    -6
 73
     4
  0
SEQEND
  5
1D0
330
1BF
100
AcDbEntity
  8
0
 62
     0
  0
LINE
  5
1D1
330
83
100
AcDbEntity
  8
0
 62
     1
100
AcDbLine
 10
109.4
 20
0.0
 30
0.0
 11
109.4
 21
32.0
 31
0.0
  0
LINE
  5
1D2
330
83
100
AcDbEntity
  8
0
 62
     1
100
AcDbLine
 10
109.4
 20
32.0
 30
0.0
 11
0.0
 21
32.0
 31
0.0
  0
LINE
  5
1D3
330
83
100
AcDbEntity
  8
0
 62
     1
100
AcDbLine
 10
0.0
 20
32.0
 30
0.0
 11
0.0
 21
0.0
 31
0.0
  0
LINE
  5
1D4
330
83
100
AcDbEntity
  8
0
 62
     1
100
AcDbLine
 10
0.0
 20
0.0
 30
0.0
 11
109.4
 21
0.0
 31
0.0
  0
LINE
  5
1D5
330
83
100
AcDbEntity
  8
0
 62
     1
100
AcDbLine
 10
103.4
 20
5.999999999999989
 30
0.0
 11
103.4
 21
25.99999999999999
 31
0.0
  0
LINE
  5
1D6
330
83
100
AcDbEntity
  8
0
 62
     1
100
AcDbLine
 10
6.000000000000007
 20
5.999999999999989
 30
0.0
 11
103.4
 21
5.999999999999989
 31
0.0
  0
LINE
  5
1D7
330
83
100
AcDbEntity
  8
0
 62
     1
100
AcDbLine
 10
6.000000000000007
 20
25.99999999999999
 30
0.0
 11
6.000000000000007
 21
5.999999999999989
 31
0.0
  0
LINE
  5
1D8
330
83
100
AcDbEntity
  8
0
 62
     1
100
AcDbLine
 10
103.4
 20
25.99999999999999
 30
0.0
 11
6.000000000000007
 21
25.99999999999999
 31
0.0
  0
POLYLINE
  5
1D9
330
83
100
AcDbEntity
  8
0
 62
     0
100
AcDbPolyFaceMesh
 66
     1
 10
0.0
 20
0.0
 30
0.0
 70
    64
 71
     8
 72
     8
1001
ACAD_MATERIAL_MAPPER
1070
     1
1070
     1
1070
     1
1011
0.0
1021
0.0
1031
0.0
1011
-2.54
1021
0.0
1031
0.0
1011
0.0
1021
2.54
1031
0.0
1011
0.0
1021
0.0
1031
1.0
  0
VERTEX
  5
1DA
330
1D9
100
AcDbEntity
  8
0
 62
     0
100
AcDbVertex
100
AcDbPolyFaceMeshVertex
 10
0.0
 20
32.0
 30
-4.5
 70
   192
  0
VERTEX
  5
1DB
330
1D9
100
AcDbEntity
  8
0
 62
     0
100
AcDbVertex
100
AcDbPolyFaceMeshVertex
 10
6.000000000000007
 20
25.99999999999999
 30
-4.5
 70
   192
  0
VERTEX
  5
1DC
330
1D9
100
AcDbEntity
  8
0
 62
     0
100
AcDbVertex
100
AcDbPolyFaceMeshVertex
 10
0.0
 20
0.0
 30
-4.5
 70
   192
  0
VERTEX
  5
1DD
330
1D9
100
AcDbEntity
  8
0
 62
     0
100
AcDbVertex
100
AcDbPolyFaceMeshVertex
 10
109.4
 20
32.0
 30
-4.5
 70
   192
  0
VERTEX
  5
1DE
330
1D9
100
AcDbEntity
  8
0
 62
     0
100
AcDbVertex
100
AcDbPolyFaceMeshVertex
 10
103.4
 20
25.99999999999999
 30
-4.5
 70
   192
  0
VERTEX
  5
1DF
330
1D9
100
AcDbEntity
  8
0
 62
     0
100
AcDbVertex
100
AcDbPolyFaceMeshVertex
 10
103.4
 20
5.999999999999989
 30
-4.5
 70
   192
  0
VERTEX
  5
1E0
330
1D9
100
AcDbEntity
  8
0
 62
     0
100
AcDbVertex
100
AcDbPolyFaceMeshVertex
 10
6.000000000000007
 20
5.999999999999989
 30
-4.5
 70
   192
  0
VERTEX
  5
1E1
330
1D9
100
AcDbEntity
  8
0
 62
     0
100
AcDbVertex
100
AcDbPolyFaceMeshVertex
 10
109.4
 20
0.0
 30
-4.5
 70
   192
  0
VERTEX
  5
1E2
330
1D9
100
AcDbEntity
  8
0
 62
     0
100
AcDbFaceRecord
 10
0.0
 20
0.0
 30
0.0
 70
   128
 71
    -1
 72
    -2
 73
     3
  0
VERTEX
  5
1E3
330
1D9
100
AcDbEntity
  8
0
 62
     0
100
AcDbFaceRecord
 10
0.0
 20
0.0
 30
0.0
 70
   128
 71
    -2
 72
     1
 73
    -4
  0
VERTEX
  5
1E4
330
1D9
100
AcDbEntity
  8
0
 62
     0
100
AcDbFaceRecord
 10
0.0
 20
0.0
 30
0.0
 70
   128
 71
    -2
 72
    -4
 73
     5
  0
VERTEX
  5
1E5
330
1D9
100
AcDbEntity
  8
0
 62
     0
100
AcDbFaceRecord
 10
0.0
 20
0.0
 30
0.0
 70
   128
 71
    -5
 72
    -4
 73
     6
  0
VERTEX
  5
1E6
330
1D9
100
AcDbEntity
  8
0
 62
     0
100
AcDbFaceRecord
 10
0.0
 20
0.0
 30
0.0
 70
   128
 71
    -3
 72
    -7
 73
     8
  0
VERTEX
  5
1E7
330
1D9
100
AcDbEntity
  8
0
 62
     0
100
AcDbFaceRecord
 10
0.0
 20
0.0
 30
0.0
 70
   128
 71
    -7
 72
    -3
 73
     2
  0
VERTEX
  5
1E8
330
1D9
100
AcDbEntity
  8
0
 62
     0
100
AcDbFaceRecord
 10
0.0
 20
0.0
 30
0.0
 70
   128
 71
    -8
 72
     7
 73
    -6
  0
VERTEX
  5
1E9
330
1D9
100
AcDbEntity
  8
0
 62
     0
100
AcDbFaceRecord
 10
0.0
 20
0.0
 30
0.0
 70
   128
 71
    -8
 72
    -6
 73
     4
  0
SEQEND
  5
1EA
330
1D9
100
AcDbEntity
  8
0
 62
     0
  0
LINE
  5
1EB
330
83
100
AcDbEntity
  8
0
 62
     1
100
AcDbLine
 10
109.4
 20
0.0
 30
-4.5
 11
109.4
 21
32.0
 31
-4.5
  0
LINE
  5
1EC
330
83
100
AcDbEntity
  8
0
 62
     1
100
AcDbLine
 10
0.0
 20
0.0
 30
-4.5
 11
109.4
 21
0.0
 31
-4.5
  0
LINE
  5
1ED
330
83
100
AcDbEntity
  8
0
 62
     1
100
AcDbLine
 10
0.0
 20
32.0
 30
-4.5
 11
0.0
 21
0.0
 31
-4.5
  0
LINE
  5
1EE
330
83
100
AcDbEntity
  8
0
 62
     1
100
AcDbLine
 10
109.4
 20
32.0
 30
-4.5
 11
0.0
 21
32.0
 31
-4.5
  0
LINE
  5
1EF
330
83
100
AcDbEntity
  8
0
 62
     1
100
AcDbLine
 10
103.4
 20
5.999999999999989
 30
-4.5
 11
103.4
 21
25.99999999999999
 31
-4.5
  0
LINE
  5
1F0
330
83
100
AcDbEntity
  8
0
 62
     1
100
AcDbLine
 10
103.4
 20
25.99999999999999
 30
-4.5
 11
6.000000000000007
 21
25.99999999999999
 31
-4.5
  0
LINE
  5
1F1
330
83
100
AcDbEntity
  8
0
 62
     1
100
AcDbLine
 10
6.000000000000007
 20
25.99999999999999
 30
-4.5
 11
6.000000000000007
 21
5.999999999999989
 31
-4.5
  0
LINE
  5
1F2
330
83
100
AcDbEntity
  8
0
 62
     1
100
AcDbLine
 10
6.000000000000007
 20
5.999999999999989
 30
-4.5
 11
103.4
 21
5.999999999999989
 31
-4.5
  0
POLYLINE
  5
1F3
330
83
100
AcDbEntity
  8
0
 62
     0
100
AcDbPolyFaceMesh
 66
     1
 10
0.0
 20
0.0
 30
0.0
 70
    64
 71
     4
 72
     2
1001
ACAD_MATERIAL_MAPPER
1070
     1
1070
     1
1070
     1
1011
0.0
1021
0.0
1031
0.0
1011
0.0
1021
2.54
1031
0.0
1011
0.0
1021
0.0
1031
2.54
1011
1.0
1021
0.0
1031
0.0
  0
VERTEX
  5
1F4
330
1F3
100
AcDbEntity
  8
0
 62
     0
100
AcDbVertex
100
AcDbPolyFaceMeshVertex
 10
109.4
 20
32.0
 30
-4.5
 70
   192
  0
VERTEX
  5
1F5
330
1F3
100
AcDbEntity
  8
0
 62
     0
100
AcDbVertex
100
AcDbPolyFaceMeshVertex
 10
109.4
 20
0.0
 30
0.0
 70
   192
  0
VERTEX
  5
1F6
330
1F3
100
AcDbEntity
  8
0
 62
     0
100
AcDbVertex
100
AcDbPolyFaceMeshVertex
 10
109.4
 20
0.0
 30
-4.5
 70
   192
  0
VERTEX
  5
1F7
330
1F3
100
AcDbEntity
  8
0
 62
     0
100
AcDbVertex
100
AcDbPolyFaceMeshVertex
 10
109.4
 20
32.0
 30
0.0
 70
   192
  0
VERTEX
  5
1F8
330
1F3
100
AcDbEntity
  8
0
 62
     0
100
AcDbFaceRecord
 10
0.0
 20
0.0
 30
0.0
 70
   128
 71
    -1
 72
     2
 73
     3
  0
VERTEX
  5
1F9
330
1F3
100
AcDbEntity
  8
0
 62
     0
100
AcDbFaceRecord
 10
0.0
 20
0.0
 30
0.0
 70
   128
 71
    -2
 72
     1
 73
     4
  0
SEQEND
  5
1FA
330
1F3
100
AcDbEntity
  8
0
 62
     0
  0
LINE
  5
1FB
330
83
100
AcDbEntity
  8
0
 62
     1
100
AcDbLine
 10
109.4
 20
0.0
 30
0.0
 11
109.4
 21
32.0
 31
0.0
  0
LINE
  5
1FC
330
83
100
AcDbEntity
  8
0
 62
     0
100
AcDbLine
 10
109.4
 20
0.0
 30
0.0
 11
109.4
 21
0.0
 31
-4.5
  0
LINE
  5
1FD
330
83
100
AcDbEntity
  8
0
 62
     1
100
AcDbLine
 10
109.4
 20
0.0
 30
-4.5
 11
109.4
 21
32.0
 31
-4.5
  0
LINE
  5
1FE
330
83
100
AcDbEntity
  8
0
 62
     0
100
AcDbLine
 10
109.4
 20
32.0
 30
0.0
 11
109.4
 21
32.0
 31
-4.5
  0
POLYLINE
  5
1FF
330
83
100
AcDbEntity
  8
0
 62
     0
100
AcDbPolyFaceMesh
 66
     1
 10
0.0
 20
0.0
 30
0.0
 70
    64
 71
     4
 72
     2
1001
ACAD_MATERIAL_MAPPER
1070
     1
1070
     1
1070
     1
1011
0.0
1021
0.0
1031
0.0
1011
2.54
1021
0.0
1031
0.0
1011
0.0
1021
0.0
1031
2.54
1011
0.0
1021
1.0
1031
0.0
  0
VERTEX
  5
200
330
1FF
100
AcDbEntity
  8
0
 62
     0
100
AcDbVertex
100
AcDbPolyFaceMeshVertex
 10
109.4
 20
0.0
 30
0.0
 70
   192
  0
VERTEX
  5
201
330
1FF
100
AcDbEntity
  8
0
 62
     0
100
AcDbVertex
100
AcDbPolyFaceMeshVertex
 10
0.0
 20
0.0
 30
-4.5
 70
   192
  0
VERTEX
  5
202
330
1FF
100
AcDbEntity
  8
0
 62
     0
100
AcDbVertex
100
AcDbPolyFaceMeshVertex
 10
109.4
 20
0.0
 30
-4.5
 70
   192
  0
VERTEX
  5
203
330
1FF
100
AcDbEntity
  8
0
 62
     0
100
AcDbVertex
100
AcDbPolyFaceMeshVertex
 10
0.0
 20
0.0
 30
0.0
 70
   192
  0
VERTEX
  5
204
330
1FF
100
AcDbEntity
  8
0
 62
     0
100
AcDbFaceRecord
 10
0.0
 20
0.0
 30
0.0
 70
   128
 71
    -1
 72
     2
 73
     3
  0
VERTEX
  5
205
330
1FF
100
AcDbEntity
  8
0
 62
     0
100
AcDbFaceRecord
 10
0.0
 20
0.0
 30
0.0
 70
   128
 71
    -2
 72
     1
 73
     4
  0
SEQEND
  5
206
330
1FF
100
AcDbEntity
  8
0
 62
     0
  0
LINE
  5
207
330
83
100
AcDbEntity
  8
0
 62
     1
100
AcDbLine
 10
0.0
 20
0.0
 30
0.0
 11
109.4
 21
0.0
 31
0.0
  0
LINE
  5
208
330
83
100
AcDbEntity
  8
0
 62
     0
100
AcDbLine
 10
0.0
 20
0.0
 30
0.0
 11
0.0
 21
0.0
 31
-4.5
  0
LINE
  5
209
330
83
100
AcDbEntity
  8
0
 62
     1
100
AcDbLine
 10
0.0
 20
0.0
 30
-4.5
 11
109.4
 21
0.0
 31
-4.5
  0
LINE
  5
20A
330
83
100
AcDbEntity
  8
0
 62
     0
100
AcDbLine
 10
109.4
 20
0.0
 30
0.0
 11
109.4
 21
0.0
 31
-4.5
  0
POLYLINE
  5
20B
330
83
100
AcDbEntity
  8
0
 62
     0
100
AcDbPolyFaceMesh
 66
     1
 10
0.0
 20
0.0
 30
0.0
 70
    64
 71
     4
 72
     2
1001
ACAD_MATERIAL_MAPPER
1070
     1
1070
     1
1070
     1
1011
0.0
1021
0.0
1031
0.0
1011
0.0
1021
-2.54
1031
0.0
1011
0.0
1021
0.0
1031
2.54
1011
1.0
1021
0.0
1031
0.0
  0
VERTEX
  5
20C
330
20B
100
AcDbEntity
  8
0
 62
     0
100
AcDbVertex
100
AcDbPolyFaceMeshVertex
 10
0.0
 20
32.0
 30
0.0
 70
   192
  0
VERTEX
  5
20D
330
20B
100
AcDbEntity
  8
0
 62
     0
100
AcDbVertex
100
AcDbPolyFaceMeshVertex
 10
0.0
 20
0.0
 30
-4.5
 70
   192
  0
VERTEX
  5
20E
330
20B
100
AcDbEntity
  8
0
 62
     0
100
AcDbVertex
100
AcDbPolyFaceMeshVertex
 10
0.0
 20
0.0
 30
0.0
 70
   192
  0
VERTEX
  5
20F
330
20B
100
AcDbEntity
  8
0
 62
     0
100
AcDbVertex
100
AcDbPolyFaceMeshVertex
 10
0.0
 20
32.0
 30
-4.5
 70
   192
  0
VERTEX
  5
210
330
20B
100
AcDbEntity
  8
0
 62
     0
100
AcDbFaceRecord
 10
0.0
 20
0.0
 30
0.0
 70
   128
 71
    -1
 72
     2
 73
     3
  0
VERTEX
  5
211
330
20B
100
AcDbEntity
  8
0
 62
     0
100
AcDbFaceRecord
 10
0.0
 20
0.0
 30
0.0
 70
   128
 71
    -2
 72
     1
 73
     4
  0
SEQEND
  5
212
330
20B
100
AcDbEntity
  8
0
 62
     0
  0
LINE
  5
213
330
83
100
AcDbEntity
  8
0
 62
     1
100
AcDbLine
 10
0.0
 20
32.0
 30
0.0
 11
0.0
 21
0.0
 31
0.0
  0
LINE
  5
214
330
83
100
AcDbEntity
  8
0
 62
     0
100
AcDbLine
 10
0.0
 20
32.0
 30
0.0
 11
0.0
 21
32.0
 31
-4.5
  0
LINE
  5
215
330
83
100
AcDbEntity
  8
0
 62
     1
100
AcDbLine
 10
0.0
 20
32.0
 30
-4.5
 11
0.0
 21
0.0
 31
-4.5
  0
LINE
  5
216
330
83
100
AcDbEntity
  8
0
 62
     0
100
AcDbLine
 10
0.0
 20
0.0
 30
0.0
 11
0.0
 21
0.0
 31
-4.5
  0
POLYLINE
  5
217
330
83
100
AcDbEntity
  8
0
 62
     0
100
AcDbPolyFaceMesh
 66
     1
 10
0.0
 20
0.0
 30
0.0
 70
    64
 71
     4
 72
     2
1001
ACAD_MATERIAL_MAPPER
1070
     1
1070
     1
1070
     1
1011
0.0
1021
0.0
1031
0.0
1011
-2.54
1021
0.0
1031
0.0
1011
0.0
1021
0.0
1031
2.54
1011
0.0
1021
1.0
1031
0.0
  0
VERTEX
  5
218
330
217
100
AcDbEntity
  8
0
 62
     0
100
AcDbVertex
100
AcDbPolyFaceMeshVertex
 10
0.0
 20
32.0
 30
0.0
 70
   192
  0
VERTEX
  5
219
330
217
100
AcDbEntity
  8
0
 62
     0
100
AcDbVertex
100
AcDbPolyFaceMeshVertex
 10
109.4
 20
32.0
 30
-4.5
 70
   192
  0
VERTEX
  5
21A
330
217
100
AcDbEntity
  8
0
 62
     0
100
AcDbVertex
100
AcDbPolyFaceMeshVertex
 10
0.0
 20
32.0
 30
-4.5
 70
   192
  0
VERTEX
  5
21B
330
217
100
AcDbEntity
  8
0
 62
     0
100
AcDbVertex
100
AcDbPolyFaceMeshVertex
 10
109.4
 20
32.0
 30
0.0
 70
   192
  0
VERTEX
  5
21C
330
217
100
AcDbEntity
  8
0
 62
     0
100
AcDbFaceRecord
 10
0.0
 20
0.0
 30
0.0
 70
   128
 71
    -1
 72
     2
 73
     3
  0
VERTEX
  5
21D
330
217
100
AcDbEntity
  8
0
 62
     0
100
AcDbFaceRecord
 10
0.0
 20
0.0
 30
0.0
 70
   128
 71
    -2
 72
     1
 73
     4
  0
SEQEND
  5
21E
330
217
100
AcDbEntity
  8
0
 62
     0
  0
LINE
  5
21F
330
83
100
AcDbEntity
  8
0
 62
     1
100
AcDbLine
 10
109.4
 20
32.0
 30
0.0
 11
0.0
 21
32.0
 31
0.0
  0
LINE
  5
220
330
83
100
AcDbEntity
  8
0
 62
     0
100
AcDbLine
 10
109.4
 20
32.0
 30
0.0
 11
109.4
 21
32.0
 31
-4.5
  0
LINE
  5
221
330
83
100
AcDbEntity
  8
0
 62
     1
100
AcDbLine
 10
109.4
 20
32.0
 30
-4.5
 11
0.0
 21
32.0
 31
-4.5
  0
LINE
  5
222
330
83
100
AcDbEntity
  8
0
 62
     0
100
AcDbLine
 10
0.0
 20
32.0
 30
0.0
 11
0.0
 21
32.0
 31
-4.5
  0
POLYLINE
  5
223
330
83
100
AcDbEntity
  8
0
 62
     0
100
AcDbPolyFaceMesh
 66
     1
 10
0.0
 20
0.0
 30
0.0
 70
    64
 71
     4
 72
     2
1001
ACAD_MATERIAL_MAPPER
1070
     1
1070
     1
1070
     1
1011
0.0
1021
0.0
1031
0.0
1011
0.0
1021
-2.54
1031
0.0
1011
0.0
1021
0.0
1031
2.54
1011
1.0
1021
0.0
1031
0.0
  0
VERTEX
  5
224
330
223
100
AcDbEntity
  8
0
 62
     0
100
AcDbVertex
100
AcDbPolyFaceMeshVertex
 10
103.4
 20
25.99999999999999
 30
0.0
 70
   192
  0
VERTEX
  5
225
330
223
100
AcDbEntity
  8
0
 62
     0
100
AcDbVertex
100
AcDbPolyFaceMeshVertex
 10
103.4
 20
5.999999999999989
 30
-4.5
 70
   192
  0
VERTEX
  5
226
330
223
100
AcDbEntity
  8
0
 62
     0
100
AcDbVertex
100
AcDbPolyFaceMeshVertex
 10
103.4
 20
5.999999999999989
 30
0.0
 70
   192
  0
VERTEX
  5
227
330
223
100
AcDbEntity
  8
0
 62
     0
100
AcDbVertex
100
AcDbPolyFaceMeshVertex
 10
103.4
 20
25.99999999999999
 30
-4.5
 70
   192
  0
VERTEX
  5
228
330
223
100
AcDbEntity
  8
0
 62
     0
100
AcDbFaceRecord
 10
0.0
 20
0.0
 30
0.0
 70
   128
 71
    -1
 72
     2
 73
     3
  0
VERTEX
  5
229
330
223
100
AcDbEntity
  8
0
 62
     0
100
AcDbFaceRecord
 10
0.0
 20
0.0
 30
0.0
 70
   128
 71
    -2
 72
     1
 73
     4
  0
SEQEND
  5
22A
330
223
100
AcDbEntity
  8
0
 62
     0
  0
LINE
  5
22B
330
83
100
AcDbEntity
  8
0
 62
     1
100
AcDbLine
 10
103.4
 20
5.999999999999989
 30
0.0
 11
103.4
 21
25.99999999999999
 31
0.0
  0
LINE
  5
22C
330
83
100
AcDbEntity
  8
0
 62
     0
100
AcDbLine
 10
103.4
 20
25.99999999999999
 30
0.0
 11
103.4
 21
25.99999999999999
 31
-4.5
  0
LINE
  5
22D
330
83
100
AcDbEntity
  8
0
 62
     1
100
AcDbLine
 10
103.4
 20
5.999999999999989
 30
-4.5
 11
103.4
 21
25.99999999999999
 31
-4.5
  0
LINE
  5
22E
330
83
100
AcDbEntity
  8
0
 62
     0
100
AcDbLine
 10
103.4
 20
5.999999999999989
 30
0.0
 11
103.4
 21
5.999999999999989
 31
-4.5
  0
POLYLINE
  5
22F
330
83
100
AcDbEntity
  8
0
 62
     0
100
AcDbPolyFaceMesh
 66
     1
 10
0.0
 20
0.0
 30
0.0
 70
    64
 71
     4
 72
     2
1001
ACAD_MATERIAL_MAPPER
1070
     1
1070
     1
1070
     1
1011
0.0
1021
0.0
1031
0.0
1011
2.54
1021
0.0
1031
0.0
1011
0.0
1021
0.0
1031
2.54
1011
0.0
1021
1.0
1031
0.0
  0
VERTEX
  5
230
330
22F
100
AcDbEntity
  8
0
 62
     0
100
AcDbVertex
100
AcDbPolyFaceMeshVertex
 10
103.4
 20
25.99999999999999
 30
0.0
 70
   192
  0
VERTEX
  5
231
330
22F
100
AcDbEntity
  8
0
 62
     0
100
AcDbVertex
100
AcDbPolyFaceMeshVertex
 10
6.000000000000007
 20
25.99999999999999
 30
-4.5
 70
   192
  0
VERTEX
  5
232
330
22F
100
AcDbEntity
  8
0
 62
     0
100
AcDbVertex
100
AcDbPolyFaceMeshVertex
 10
103.4
 20
25.99999999999999
 30
-4.5
 70
   192
  0
VERTEX
  5
233
330
22F
100
AcDbEntity
  8
0
 62
     0
100
AcDbVertex
100
AcDbPolyFaceMeshVertex
 10
6.000000000000007
 20
25.99999999999999
 30
0.0
 70
   192
  0
VERTEX
  5
234
330
22F
100
AcDbEntity
  8
0
 62
     0
100
AcDbFaceRecord
 10
0.0
 20
0.0
 30
0.0
 70
   128
 71
    -1
 72
     2
 73
     3
  0
VERTEX
  5
235
330
22F
100
AcDbEntity
  8
0
 62
     0
100
AcDbFaceRecord
 10
0.0
 20
0.0
 30
0.0
 70
   128
 71
    -2
 72
     1
 73
     4
  0
SEQEND
  5
236
330
22F
100
AcDbEntity
  8
0
 62
     0
  0
LINE
  5
237
330
83
100
AcDbEntity
  8
0
 62
     1
100
AcDbLine
 10
103.4
 20
25.99999999999999
 30
0.0
 11
6.000000000000007
 21
25.99999999999999
 31
0.0
  0
LINE
  5
238
330
83
100
AcDbEntity
  8
0
 62
     0
100
AcDbLine
 10
6.000000000000007
 20
25.99999999999999
 30
0.0
 11
6.000000000000007
 21
25.99999999999999
 31
-4.5
  0
LINE
  5
239
330
83
100
AcDbEntity
  8
0
 62
     1
100
AcDbLine
 10
103.4
 20
25.99999999999999
 30
-4.5
 11
6.000000000000007
 21
25.99999999999999
 31
-4.5
  0
LINE
  5
23A
330
83
100
AcDbEntity
  8
0
 62
     0
100
AcDbLine
 10
103.4
 20
25.99999999999999
 30
0.0
 11
103.4
 21
25.99999999999999
 31
-4.5
  0
POLYLINE
  5
23B
330
83
100
AcDbEntity
  8
0
 62
     0
100
AcDbPolyFaceMesh
 66
     1
 10
0.0
 20
0.0
 30
0.0
 70
    64
 71
     4
 72
     2
1001
ACAD_MATERIAL_MAPPER
1070
     1
1070
     1
1070
     1
1011
0.0
1021
0.0000000000000013
1031
0.0
1011
0.0
1021
2.540000000000001
1031
0.0
1011
0.0
1021
0.0000000000000013
1031
2.54
1011
1.0
1021
0.0000000000000013
1031
0.0
  0
VERTEX
  5
23C
330
23B
100
AcDbEntity
  8
0
 62
     0
100
AcDbVertex
100
AcDbPolyFaceMeshVertex
 10
6.000000000000007
 20
25.99999999999999
 30
-4.5
 70
   192
  0
VERTEX
  5
23D
330
23B
100
AcDbEntity
  8
0
 62
     0
100
AcDbVertex
100
AcDbPolyFaceMeshVertex
 10
6.000000000000007
 20
5.999999999999989
 30
0.0
 70
   192
  0
VERTEX
  5
23E
330
23B
100
AcDbEntity
  8
0
 62
     0
100
AcDbVertex
100
AcDbPolyFaceMeshVertex
 10
6.000000000000007
 20
5.999999999999989
 30
-4.5
 70
   192
  0
VERTEX
  5
23F
330
23B
100
AcDbEntity
  8
0
 62
     0
100
AcDbVertex
100
AcDbPolyFaceMeshVertex
 10
6.000000000000007
 20
25.99999999999999
 30
0.0
 70
   192
  0
VERTEX
  5
240
330
23B
100
AcDbEntity
  8
0
 62
     0
100
AcDbFaceRecord
 10
0.0
 20
0.0
 30
0.0
 70
   128
 71
    -1
 72
     2
 73
     3
  0
VERTEX
  5
241
330
23B
100
AcDbEntity
  8
0
 62
     0
100
AcDbFaceRecord
 10
0.0
 20
0.0
 30
0.0
 70
   128
 71
    -2
 72
     1
 73
     4
  0
SEQEND
  5
242
330
23B
100
AcDbEntity
  8
0
 62
     0
  0
LINE
  5
243
330
83
100
AcDbEntity
  8
0
 62
     1
100
AcDbLine
 10
6.000000000000007
 20
25.99999999999999
 30
0.0
 11
6.000000000000007
 21
5.999999999999989
 31
0.0
  0
LINE
  5
244
330
83
100
AcDbEntity
  8
0
 62
     0
100
AcDbLine
 10
6.000000000000007
 20
5.999999999999989
 30
0.0
 11
6.000000000000007
 21
5.999999999999989
 31
-4.5
  0
LINE
  5
245
330
83
100
AcDbEntity
  8
0
 62
     1
100
AcDbLine
 10
6.000000000000007
 20
25.99999999999999
 30
-4.5
 11
6.000000000000007
 21
5.999999999999989
 31
-4.5
  0
LINE
  5
246
330
83
100
AcDbEntity
  8
0
 62
     0
100
AcDbLine
 10
6.000000000000007
 20
25.99999999999999
 30
0.0
 11
6.000000000000007
 21
25.99999999999999
 31
-4.5
  0
POLYLINE
  5
247
330
83
100
AcDbEntity
  8
0
 62
     0
100
AcDbPolyFaceMesh
 66
     1
 10
0.0
 20
0.0
 30
0.0
 70
    64
 71
     4
 72
     2
1001
ACAD_MATERIAL_MAPPER
1070
     1
1070
     1
1070
     1
1011
-0.0000000000000009
1021
0.0
1031
0.0
1011
-2.540000000000001
1021
0.0
1031
0.0
1011
-0.0000000000000009
1021
0.0
1031
2.54
1011
-0.0000000000000009
1021
1.0
1031
0.0
  0
VERTEX
  5
248
330
247
100
AcDbEntity
  8
0
 62
     0
100
AcDbVertex
100
AcDbPolyFaceMeshVertex
 10
6.000000000000007
 20
5.999999999999989
 30
0.0
 70
   192
  0
VERTEX
  5
249
330
247
100
AcDbEntity
  8
0
 62
     0
100
AcDbVertex
100
AcDbPolyFaceMeshVertex
 10
103.4
 20
5.999999999999989
 30
-4.5
 70
   192
  0
VERTEX
  5
24A
330
247
100
AcDbEntity
  8
0
 62
     0
100
AcDbVertex
100
AcDbPolyFaceMeshVertex
 10
6.000000000000007
 20
5.999999999999989
 30
-4.5
 70
   192
  0
VERTEX
  5
24B
330
247
100
AcDbEntity
  8
0
 62
     0
100
AcDbVertex
100
AcDbPolyFaceMeshVertex
 10
103.4
 20
5.999999999999989
 30
0.0
 70
   192
  0
VERTEX
  5
24C
330
247
100
AcDbEntity
  8
0
 62
     0
100
AcDbFaceRecord
 10
0.0
 20
0.0
 30
0.0
 70
   128
 71
    -1
 72
     2
 73
     3
  0
VERTEX
  5
24D
330
247
100
AcDbEntity
  8
0
 62
     0
100
AcDbFaceRecord
 10
0.0
 20
0.0
 30
0.0
 70
   128
 71
    -2
 72
     1
 73
     4
  0
SEQEND
  5
24E
330
247
100
AcDbEntity
  8
0
 62
     0
  0
LINE
  5
24F
330
83
100
AcDbEntity
  8
0
 62
     1
100
AcDbLine
 10
6.000000000000007
 20
5.999999999999989
 30
0.0
 11
103.4
 21
5.999999999999989
 31
0.0
  0
LINE
  5
250
330
83
100
AcDbEntity
  8
0
 62
     0
100
AcDbLine
 10
103.4
 20
5.999999999999989
 30
0.0
 11
103.4
 21
5.999999999999989
 31
-4.5
  0
LINE
  5
251
330
83
100
AcDbEntity
  8
0
 62
     1
100
AcDbLine
 10
6.000000000000007
 20
5.999999999999989
 30
-4.5
 11
103.4
 21
5.999999999999989
 31
-4.5
  0
LINE
  5
252
330
83
100
AcDbEntity
  8
0
 62
     0
100
AcDbLine
 10
6.000000000000007
 20
5.999999999999989
 30
0.0
 11
6.000000000000007
 21
5.999999999999989
 31
-4.5
  0
ENDBLK
  5
85
330
83
100
AcDbEntity
  8
0
100
AcDbBlockEnd
  0
BLOCK
  5
87
330
86
100
AcDbEntity
  8
0
100
AcDbBlockBegin
  2
GRUPO_4
 70
     0
 10
0.0
 20
0.0
 30
0.0
  3
GRUPO_4
  1

  0
POLYLINE
  5
253
330
86
100
AcDbEntity
  8
0
 62
     0
100
AcDbPolyFaceMesh
 66
     1
 10
0.0
 20
0.0
 30
0.0
 70
    64
 71
     8
 72
     8
1001
ACAD_MATERIAL_MAPPER
1070
     1
1070
     1
1070
     1
1011
0.0
1021
0.0
1031
0.0
1011
-2.54
1021
0.0
1031
0.0
1011
0.0
1021
2.54
1031
0.0
1011
0.0
1021
0.0
1031
1.0
  0
VERTEX
  5
254
330
253
100
AcDbEntity
  8
0
 62
     0
100
AcDbVertex
100
AcDbPolyFaceMeshVertex
 10
0.0
 20
24.8
 30
0.0
 70
   192
  0
VERTEX
  5
255
330
253
100
AcDbEntity
  8
0
 62
     0
100
AcDbVertex
100
AcDbPolyFaceMeshVertex
 10
1.400000000000007
 20
23.4
 30
0.0
 70
   192
  0
VERTEX
  5
256
330
253
100
AcDbEntity
  8
0
 62
     0
100
AcDbVertex
100
AcDbPolyFaceMeshVertex
 10
0.0
 20
0.0
 30
0.0
 70
   192
  0
VERTEX
  5
257
330
253
100
AcDbEntity
  8
0
 62
     0
100
AcDbVertex
100
AcDbPolyFaceMeshVertex
 10
102.2
 20
24.8
 30
0.0
 70
   192
  0
VERTEX
  5
258
330
253
100
AcDbEntity
  8
0
 62
     0
100
AcDbVertex
100
AcDbPolyFaceMeshVertex
 10
100.8
 20
23.4
 30
0.0
 70
   192
  0
VERTEX
  5
259
330
253
100
AcDbEntity
  8
0
 62
     0
100
AcDbVertex
100
AcDbPolyFaceMeshVertex
 10
100.8
 20
1.400000000000007
 30
0.0
 70
   192
  0
VERTEX
  5
25A
330
253
100
AcDbEntity
  8
0
 62
     0
100
AcDbVertex
100
AcDbPolyFaceMeshVertex
 10
1.400000000000007
 20
1.400000000000007
 30
0.0
 70
   192
  0
VERTEX
  5
25B
330
253
100
AcDbEntity
  8
0
 62
     0
100
AcDbVertex
100
AcDbPolyFaceMeshVertex
 10
102.2
 20
0.0
 30
0.0
 70
   192
  0
VERTEX
  5
25C
330
253
100
AcDbEntity
  8
0
 62
     0
100
AcDbFaceRecord
 10
0.0
 20
0.0
 30
0.0
 70
   128
 71
    -1
 72
    -2
 73
     3
  0
VERTEX
  5
25D
330
253
100
AcDbEntity
  8
0
 62
     0
100
AcDbFaceRecord
 10
0.0
 20
0.0
 30
0.0
 70
   128
 71
    -2
 72
     1
 73
    -4
  0
VERTEX
  5
25E
330
253
100
AcDbEntity
  8
0
 62
     0
100
AcDbFaceRecord
 10
0.0
 20
0.0
 30
0.0
 70
   128
 71
    -2
 72
    -4
 73
     5
  0
VERTEX
  5
25F
330
253
100
AcDbEntity
  8
0
 62
     0
100
AcDbFaceRecord
 10
0.0
 20
0.0
 30
0.0
 70
   128
 71
    -5
 72
    -4
 73
     6
  0
VERTEX
  5
260
330
253
100
AcDbEntity
  8
0
 62
     0
100
AcDbFaceRecord
 10
0.0
 20
0.0
 30
0.0
 70
   128
 71
    -3
 72
    -7
 73
     8
  0
VERTEX
  5
261
330
253
100
AcDbEntity
  8
0
 62
     0
100
AcDbFaceRecord
 10
0.0
 20
0.0
 30
0.0
 70
   128
 71
    -7
 72
    -3
 73
     2
  0
VERTEX
  5
262
330
253
100
AcDbEntity
  8
0
 62
     0
100
AcDbFaceRecord
 10
0.0
 20
0.0
 30
0.0
 70
   128
 71
    -8
 72
     7
 73
    -6
  0
VERTEX
  5
263
330
253
100
AcDbEntity
  8
0
 62
     0
100
AcDbFaceRecord
 10
0.0
 20
0.0
 30
0.0
 70
   128
 71
    -8
 72
    -6
 73
     4
  0
SEQEND
  5
264
330
253
100
AcDbEntity
  8
0
 62
     0
  0
LINE
  5
265
330
86
100
AcDbEntity
  8
0
 62
     5
100
AcDbLine
 10
0.0
 20
24.8
 30
0.0
 11
0.0
 21
0.0
 31
0.0
  0
LINE
  5
266
330
86
100
AcDbEntity
  8
0
 62
     5
100
AcDbLine
 10
102.2
 20
24.8
 30
0.0
 11
0.0
 21
24.8
 31
0.0
  0
LINE
  5
267
330
86
100
AcDbEntity
  8
0
 62
     5
100
AcDbLine
 10
102.2
 20
0.0
 30
0.0
 11
102.2
 21
24.8
 31
0.0
  0
LINE
  5
268
330
86
100
AcDbEntity
  8
0
 62
     5
100
AcDbLine
 10
0.0
 20
0.0
 30
0.0
 11
102.2
 21
0.0
 31
0.0
  0
LINE
  5
269
330
86
100
AcDbEntity
  8
0
 62
     5
100
AcDbLine
 10
1.400000000000007
 20
23.4
 30
0.0
 11
1.400000000000007
 21
1.400000000000007
 31
0.0
  0
LINE
  5
26A
330
86
100
AcDbEntity
  8
0
 62
     5
100
AcDbLine
 10
1.400000000000007
 20
1.400000000000007
 30
0.0
 11
100.8
 21
1.400000000000007
 31
0.0
  0
LINE
  5
26B
330
86
100
AcDbEntity
  8
0
 62
     5
100
AcDbLine
 10
100.8
 20
1.400000000000007
 30
0.0
 11
100.8
 21
23.4
 31
0.0
  0
LINE
  5
26C
330
86
100
AcDbEntity
  8
0
 62
     5
100
AcDbLine
 10
100.8
 20
23.4
 30
0.0
 11
1.400000000000007
 21
23.4
 31
0.0
  0
POLYLINE
  5
26D
330
86
100
AcDbEntity
  8
0
 62
     0
100
AcDbPolyFaceMesh
 66
     1
 10
0.0
 20
0.0
 30
0.0
 70
    64
 71
     8
 72
     8
1001
ACAD_MATERIAL_MAPPER
1070
     1
1070
     1
1070
     1
1011
0.0
1021
0.0
1031
0.0
1011
2.54
1021
0.0
1031
0.0
1011
0.0
1021
2.54
1031
0.0
1011
0.0
1021
0.0
1031
1.0
  0
VERTEX
  5
26E
330
26D
100
AcDbEntity
  8
0
 62
     0
100
AcDbVertex
100
AcDbPolyFaceMeshVertex
 10
0.0
 20
0.0
 30
0.9999999999999999
 70
   192
  0
VERTEX
  5
26F
330
26D
100
AcDbEntity
  8
0
 62
     0
100
AcDbVertex
100
AcDbPolyFaceMeshVertex
 10
1.400000000000007
 20
1.400000000000007
 30
0.9999999999999999
 70
   192
  0
VERTEX
  5
270
330
26D
100
AcDbEntity
  8
0
 62
     0
100
AcDbVertex
100
AcDbPolyFaceMeshVertex
 10
0.0
 20
24.8
 30
0.9999999999999999
 70
   192
  0
VERTEX
  5
271
330
26D
100
AcDbEntity
  8
0
 62
     0
100
AcDbVertex
100
AcDbPolyFaceMeshVertex
 10
102.2
 20
0.0
 30
0.9999999999999999
 70
   192
  0
VERTEX
  5
272
330
26D
100
AcDbEntity
  8
0
 62
     0
100
AcDbVertex
100
AcDbPolyFaceMeshVertex
 10
100.8
 20
1.400000000000007
 30
0.9999999999999999
 70
   192
  0
VERTEX
  5
273
330
26D
100
AcDbEntity
  8
0
 62
     0
100
AcDbVertex
100
AcDbPolyFaceMeshVertex
 10
100.8
 20
23.4
 30
0.9999999999999999
 70
   192
  0
VERTEX
  5
274
330
26D
100
AcDbEntity
  8
0
 62
     0
100
AcDbVertex
100
AcDbPolyFaceMeshVertex
 10
1.400000000000007
 20
23.4
 30
0.9999999999999999
 70
   192
  0
VERTEX
  5
275
330
26D
100
AcDbEntity
  8
0
 62
     0
100
AcDbVertex
100
AcDbPolyFaceMeshVertex
 10
102.2
 20
24.8
 30
0.9999999999999999
 70
   192
  0
VERTEX
  5
276
330
26D
100
AcDbEntity
  8
0
 62
     0
100
AcDbFaceRecord
 10
0.0
 20
0.0
 30
0.0
 70
   128
 71
    -1
 72
    -2
 73
     3
  0
VERTEX
  5
277
330
26D
100
AcDbEntity
  8
0
 62
     0
100
AcDbFaceRecord
 10
0.0
 20
0.0
 30
0.0
 70
   128
 71
    -2
 72
     1
 73
    -4
  0
VERTEX
  5
278
330
26D
100
AcDbEntity
  8
0
 62
     0
100
AcDbFaceRecord
 10
0.0
 20
0.0
 30
0.0
 70
   128
 71
    -2
 72
    -4
 73
     5
  0
VERTEX
  5
279
330
26D
100
AcDbEntity
  8
0
 62
     0
100
AcDbFaceRecord
 10
0.0
 20
0.0
 30
0.0
 70
   128
 71
    -5
 72
    -4
 73
     6
  0
VERTEX
  5
27A
330
26D
100
AcDbEntity
  8
0
 62
     0
100
AcDbFaceRecord
 10
0.0
 20
0.0
 30
0.0
 70
   128
 71
    -3
 72
    -7
 73
     8
  0
VERTEX
  5
27B
330
26D
100
AcDbEntity
  8
0
 62
     0
100
AcDbFaceRecord
 10
0.0
 20
0.0
 30
0.0
 70
   128
 71
    -7
 72
    -3
 73
     2
  0
VERTEX
  5
27C
330
26D
100
AcDbEntity
  8
0
 62
     0
100
AcDbFaceRecord
 10
0.0
 20
0.0
 30
0.0
 70
   128
 71
    -8
 72
     7
 73
    -6
  0
VERTEX
  5
27D
330
26D
100
AcDbEntity
  8
0
 62
     0
100
AcDbFaceRecord
 10
0.0
 20
0.0
 30
0.0
 70
   128
 71
    -8
 72
    -6
 73
     4
  0
SEQEND
  5
27E
330
26D
100
AcDbEntity
  8
0
 62
     0
  0
LINE
  5
27F
330
86
100
AcDbEntity
  8
0
 62
     5
100
AcDbLine
 10
0.0
 20
24.8
 30
0.9999999999999999
 11
0.0
 21
0.0
 31
0.9999999999999999
  0
LINE
  5
280
330
86
100
AcDbEntity
  8
0
 62
     5
100
AcDbLine
 10
0.0
 20
0.0
 30
0.9999999999999999
 11
102.2
 21
0.0
 31
0.9999999999999999
  0
LINE
  5
281
330
86
100
AcDbEntity
  8
0
 62
     5
100
AcDbLine
 10
102.2
 20
0.0
 30
0.9999999999999999
 11
102.2
 21
24.8
 31
0.9999999999999999
  0
LINE
  5
282
330
86
100
AcDbEntity
  8
0
 62
     5
100
AcDbLine
 10
102.2
 20
24.8
 30
0.9999999999999999
 11
0.0
 21
24.8
 31
0.9999999999999999
  0
LINE
  5
283
330
86
100
AcDbEntity
  8
0
 62
     5
100
AcDbLine
 10
1.400000000000007
 20
23.4
 30
0.9999999999999999
 11
1.400000000000007
 21
1.400000000000007
 31
0.9999999999999999
  0
LINE
  5
284
330
86
100
AcDbEntity
  8
0
 62
     5
100
AcDbLine
 10
100.8
 20
23.4
 30
0.9999999999999999
 11
1.400000000000007
 21
23.4
 31
0.9999999999999999
  0
LINE
  5
285
330
86
100
AcDbEntity
  8
0
 62
     5
100
AcDbLine
 10
100.8
 20
1.400000000000007
 30
0.9999999999999999
 11
100.8
 21
23.4
 31
0.9999999999999999
  0
LINE
  5
286
330
86
100
AcDbEntity
  8
0
 62
     5
100
AcDbLine
 10
1.400000000000007
 20
1.400000000000007
 30
0.9999999999999999
 11
100.8
 21
1.400000000000007
 31
0.9999999999999999
  0
POLYLINE
  5
287
330
86
100
AcDbEntity
  8
0
 62
     0
100
AcDbPolyFaceMesh
 66
     1
 10
0.0
 20
0.0
 30
0.0
 70
    64
 71
     4
 72
     2
1001
ACAD_MATERIAL_MAPPER
1070
     1
1070
     1
1070
     1
1011
0.0
1021
0.0
1031
0.0
1011
0.0
1021
-2.54
1031
0.0
1011
0.0
1021
0.0
1031
2.54
1011
1.0
1021
0.0
1031
0.0
  0
VERTEX
  5
288
330
287
100
AcDbEntity
  8
0
 62
     0
100
AcDbVertex
100
AcDbPolyFaceMeshVertex
 10
0.0
 20
24.8
 30
0.9999999999999999
 70
   192
  0
VERTEX
  5
289
330
287
100
AcDbEntity
  8
0
 62
     0
100
AcDbVertex
100
AcDbPolyFaceMeshVertex
 10
0.0
 20
0.0
 30
0.0
 70
   192
  0
VERTEX
  5
28A
330
287
100
AcDbEntity
  8
0
 62
     0
100
AcDbVertex
100
AcDbPolyFaceMeshVertex
 10
0.0
 20
0.0
 30
0.9999999999999999
 70
   192
  0
VERTEX
  5
28B
330
287
100
AcDbEntity
  8
0
 62
     0
100
AcDbVertex
100
AcDbPolyFaceMeshVertex
 10
0.0
 20
24.8
 30
0.0
 70
   192
  0
VERTEX
  5
28C
330
287
100
AcDbEntity
  8
0
 62
     0
100
AcDbFaceRecord
 10
0.0
 20
0.0
 30
0.0
 70
   128
 71
    -1
 72
     2
 73
     3
  0
VERTEX
  5
28D
330
287
100
AcDbEntity
  8
0
 62
     0
100
AcDbFaceRecord
 10
0.0
 20
0.0
 30
0.0
 70
   128
 71
    -2
 72
     1
 73
     4
  0
SEQEND
  5
28E
330
287
100
AcDbEntity
  8
0
 62
     0
  0
LINE
  5
28F
330
86
100
AcDbEntity
  8
0
 62
     5
100
AcDbLine
 10
0.0
 20
24.8
 30
0.0
 11
0.0
 21
0.0
 31
0.0
  0
LINE
  5
290
330
86
100
AcDbEntity
  8
0
 62
     0
100
AcDbLine
 10
0.0
 20
0.0
 30
0.0
 11
0.0
 21
0.0
 31
0.9999999999999999
  0
LINE
  5
291
330
86
100
AcDbEntity
  8
0
 62
     5
100
AcDbLine
 10
0.0
 20
24.8
 30
0.9999999999999999
 11
0.0
 21
0.0
 31
0.9999999999999999
  0
LINE
  5
292
330
86
100
AcDbEntity
  8
0
 62
     0
100
AcDbLine
 10
0.0
 20
24.8
 30
0.0
 11
0.0
 21
24.8
 31
0.9999999999999999
  0
POLYLINE
  5
293
330
86
100
AcDbEntity
  8
0
 62
     0
100
AcDbPolyFaceMesh
 66
     1
 10
0.0
 20
0.0
 30
0.0
 70
    64
 71
     4
 72
     2
1001
ACAD_MATERIAL_MAPPER
1070
     1
1070
     1
1070
     1
1011
0.0
1021
0.0
1031
0.0
1011
-2.54
1021
0.0
1031
0.0
1011
0.0
1021
0.0
1031
2.54
1011
0.0
1021
1.0
1031
0.0
  0
VERTEX
  5
294
330
293
100
AcDbEntity
  8
0
 62
     0
100
AcDbVertex
100
AcDbPolyFaceMeshVertex
 10
0.0
 20
24.8
 30
0.9999999999999999
 70
   192
  0
VERTEX
  5
295
330
293
100
AcDbEntity
  8
0
 62
     0
100
AcDbVertex
100
AcDbPolyFaceMeshVertex
 10
102.2
 20
24.8
 30
0.0
 70
   192
  0
VERTEX
  5
296
330
293
100
AcDbEntity
  8
0
 62
     0
100
AcDbVertex
100
AcDbPolyFaceMeshVertex
 10
0.0
 20
24.8
 30
0.0
 70
   192
  0
VERTEX
  5
297
330
293
100
AcDbEntity
  8
0
 62
     0
100
AcDbVertex
100
AcDbPolyFaceMeshVertex
 10
102.2
 20
24.8
 30
0.9999999999999999
 70
   192
  0
VERTEX
  5
298
330
293
100
AcDbEntity
  8
0
 62
     0
100
AcDbFaceRecord
 10
0.0
 20
0.0
 30
0.0
 70
   128
 71
    -1
 72
     2
 73
     3
  0
VERTEX
  5
299
330
293
100
AcDbEntity
  8
0
 62
     0
100
AcDbFaceRecord
 10
0.0
 20
0.0
 30
0.0
 70
   128
 71
    -2
 72
     1
 73
     4
  0
SEQEND
  5
29A
330
293
100
AcDbEntity
  8
0
 62
     0
  0
LINE
  5
29B
330
86
100
AcDbEntity
  8
0
 62
     5
100
AcDbLine
 10
102.2
 20
24.8
 30
0.0
 11
0.0
 21
24.8
 31
0.0
  0
LINE
  5
29C
330
86
100
AcDbEntity
  8
0
 62
     0
100
AcDbLine
 10
0.0
 20
24.8
 30
0.0
 11
0.0
 21
24.8
 31
0.9999999999999999
  0
LINE
  5
29D
330
86
100
AcDbEntity
  8
0
 62
     5
100
AcDbLine
 10
102.2
 20
24.8
 30
0.9999999999999999
 11
0.0
 21
24.8
 31
0.9999999999999999
  0
LINE
  5
29E
330
86
100
AcDbEntity
  8
0
 62
     0
100
AcDbLine
 10
102.2
 20
24.8
 30
0.0
 11
102.2
 21
24.8
 31
0.9999999999999999
  0
POLYLINE
  5
29F
330
86
100
AcDbEntity
  8
0
 62
     0
100
AcDbPolyFaceMesh
 66
     1
 10
0.0
 20
0.0
 30
0.0
 70
    64
 71
     4
 72
     2
1001
ACAD_MATERIAL_MAPPER
1070
     1
1070
     1
1070
     1
1011
0.0
1021
0.0
1031
0.0
1011
0.0
1021
2.54
1031
0.0
1011
0.0
1021
0.0
1031
2.54
1011
1.0
1021
0.0
1031
0.0
  0
VERTEX
  5
2A0
330
29F
100
AcDbEntity
  8
0
 62
     0
100
AcDbVertex
100
AcDbPolyFaceMeshVertex
 10
102.2
 20
24.8
 30
0.0
 70
   192
  0
VERTEX
  5
2A1
330
29F
100
AcDbEntity
  8
0
 62
     0
100
AcDbVertex
100
AcDbPolyFaceMeshVertex
 10
102.2
 20
0.0
 30
0.9999999999999999
 70
   192
  0
VERTEX
  5
2A2
330
29F
100
AcDbEntity
  8
0
 62
     0
100
AcDbVertex
100
AcDbPolyFaceMeshVertex
 10
102.2
 20
0.0
 30
0.0
 70
   192
  0
VERTEX
  5
2A3
330
29F
100
AcDbEntity
  8
0
 62
     0
100
AcDbVertex
100
AcDbPolyFaceMeshVertex
 10
102.2
 20
24.8
 30
0.9999999999999999
 70
   192
  0
VERTEX
  5
2A4
330
29F
100
AcDbEntity
  8
0
 62
     0
100
AcDbFaceRecord
 10
0.0
 20
0.0
 30
0.0
 70
   128
 71
    -1
 72
     2
 73
     3
  0
VERTEX
  5
2A5
330
29F
100
AcDbEntity
  8
0
 62
     0
100
AcDbFaceRecord
 10
0.0
 20
0.0
 30
0.0
 70
   128
 71
    -2
 72
     1
 73
     4
  0
SEQEND
  5
2A6
330
29F
100
AcDbEntity
  8
0
 62
     0
  0
LINE
  5
2A7
330
86
100
AcDbEntity
  8
0
 62
     5
100
AcDbLine
 10
102.2
 20
0.0
 30
0.0
 11
102.2
 21
24.8
 31
0.0
  0
LINE
  5
2A8
330
86
100
AcDbEntity
  8
0
 62
     0
100
AcDbLine
 10
102.2
 20
24.8
 30
0.0
 11
102.2
 21
24.8
 31
0.9999999999999999
  0
LINE
  5
2A9
330
86
100
AcDbEntity
  8
0
 62
     5
100
AcDbLine
 10
102.2
 20
0.0
 30
0.9999999999999999
 11
102.2
 21
24.8
 31
0.9999999999999999
  0
LINE
  5
2AA
330
86
100
AcDbEntity
  8
0
 62
     0
100
AcDbLine
 10
102.2
 20
0.0
 30
0.0
 11
102.2
 21
0.0
 31
0.9999999999999999
  0
POLYLINE
  5
2AB
330
86
100
AcDbEntity
  8
0
 62
     0
100
AcDbPolyFaceMesh
 66
     1
 10
0.0
 20
0.0
 30
0.0
 70
    64
 71
     4
 72
     2
1001
ACAD_MATERIAL_MAPPER
1070
     1
1070
     1
1070
     1
1011
0.0
1021
0.0
1031
0.0
1011
2.54
1021
0.0
1031
0.0
1011
0.0
1021
0.0
1031
2.54
1011
0.0
1021
1.0
1031
0.0
  0
VERTEX
  5
2AC
330
2AB
100
AcDbEntity
  8
0
 62
     0
100
AcDbVertex
100
AcDbPolyFaceMeshVertex
 10
102.2
 20
0.0
 30
0.9999999999999999
 70
   192
  0
VERTEX
  5
2AD
330
2AB
100
AcDbEntity
  8
0
 62
     0
100
AcDbVertex
100
AcDbPolyFaceMeshVertex
 10
0.0
 20
0.0
 30
0.0
 70
   192
  0
VERTEX
  5
2AE
330
2AB
100
AcDbEntity
  8
0
 62
     0
100
AcDbVertex
100
AcDbPolyFaceMeshVertex
 10
102.2
 20
0.0
 30
0.0
 70
   192
  0
VERTEX
  5
2AF
330
2AB
100
AcDbEntity
  8
0
 62
     0
100
AcDbVertex
100
AcDbPolyFaceMeshVertex
 10
0.0
 20
0.0
 30
0.9999999999999999
 70
   192
  0
VERTEX
  5
2B0
330
2AB
100
AcDbEntity
  8
0
 62
     0
100
AcDbFaceRecord
 10
0.0
 20
0.0
 30
0.0
 70
   128
 71
    -1
 72
     2
 73
     3
  0
VERTEX
  5
2B1
330
2AB
100
AcDbEntity
  8
0
 62
     0
100
AcDbFaceRecord
 10
0.0
 20
0.0
 30
0.0
 70
   128
 71
    -2
 72
     1
 73
     4
  0
SEQEND
  5
2B2
330
2AB
100
AcDbEntity
  8
0
 62
     0
  0
LINE
  5
2B3
330
86
100
AcDbEntity
  8
0
 62
     5
100
AcDbLine
 10
0.0
 20
0.0
 30
0.0
 11
102.2
 21
0.0
 31
0.0
  0
LINE
  5
2B4
330
86
100
AcDbEntity
  8
0
 62
     0
100
AcDbLine
 10
102.2
 20
0.0
 30
0.0
 11
102.2
 21
0.0
 31
0.9999999999999999
  0
LINE
  5
2B5
330
86
100
AcDbEntity
  8
0
 62
     5
100
AcDbLine
 10
0.0
 20
0.0
 30
0.9999999999999999
 11
102.2
 21
0.0
 31
0.9999999999999999
  0
LINE
  5
2B6
330
86
100
AcDbEntity
  8
0
 62
     0
100
AcDbLine
 10
0.0
 20
0.0
 30
0.0
 11
0.0
 21
0.0
 31
0.9999999999999999
  0
POLYLINE
  5
2B7
330
86
100
AcDbEntity
  8
0
 62
     0
100
AcDbPolyFaceMesh
 66
     1
 10
0.0
 20
0.0
 30
0.0
 70
    64
 71
     4
 72
     2
1001
ACAD_MATERIAL_MAPPER
1070
     1
1070
     1
1070
     1
1011
0.0
1021
0.0000000000000003
1031
0.0
1011
0.0
1021
2.54
1031
0.0
1011
0.0
1021
0.0000000000000003
1031
2.54
1011
1.0
1021
0.0000000000000003
1031
0.0
  0
VERTEX
  5
2B8
330
2B7
100
AcDbEntity
  8
0
 62
     0
100
AcDbVertex
100
AcDbPolyFaceMeshVertex
 10
1.400000000000007
 20
23.4
 30
0.0
 70
   192
  0
VERTEX
  5
2B9
330
2B7
100
AcDbEntity
  8
0
 62
     0
100
AcDbVertex
100
AcDbPolyFaceMeshVertex
 10
1.400000000000007
 20
1.400000000000007
 30
0.9999999999999999
 70
   192
  0
VERTEX
  5
2BA
330
2B7
100
AcDbEntity
  8
0
 62
     0
100
AcDbVertex
100
AcDbPolyFaceMeshVertex
 10
1.400000000000007
 20
1.400000000000007
 30
0.0
 70
   192
  0
VERTEX
  5
2BB
330
2B7
100
AcDbEntity
  8
0
 62
     0
100
AcDbVertex
100
AcDbPolyFaceMeshVertex
 10
1.400000000000007
 20
23.4
 30
0.9999999999999999
 70
   192
  0
VERTEX
  5
2BC
330
2B7
100
AcDbEntity
  8
0
 62
     0
100
AcDbFaceRecord
 10
0.0
 20
0.0
 30
0.0
 70
   128
 71
    -1
 72
     2
 73
     3
  0
VERTEX
  5
2BD
330
2B7
100
AcDbEntity
  8
0
 62
     0
100
AcDbFaceRecord
 10
0.0
 20
0.0
 30
0.0
 70
   128
 71
    -2
 72
     1
 73
     4
  0
SEQEND
  5
2BE
330
2B7
100
AcDbEntity
  8
0
 62
     0
  0
LINE
  5
2BF
330
86
100
AcDbEntity
  8
0
 62
     5
100
AcDbLine
 10
1.400000000000007
 20
23.4
 30
0.0
 11
1.400000000000007
 21
1.400000000000007
 31
0.0
  0
LINE
  5
2C0
330
86
100
AcDbEntity
  8
0
 62
     0
100
AcDbLine
 10
1.400000000000007
 20
23.4
 30
0.0
 11
1.400000000000007
 21
23.4
 31
0.9999999999999999
  0
LINE
  5
2C1
330
86
100
AcDbEntity
  8
0
 62
     5
100
AcDbLine
 10
1.400000000000007
 20
23.4
 30
0.9999999999999999
 11
1.400000000000007
 21
1.400000000000007
 31
0.9999999999999999
  0
LINE
  5
2C2
330
86
100
AcDbEntity
  8
0
 62
     0
100
AcDbLine
 10
1.400000000000007
 20
1.400000000000007
 30
0.0
 11
1.400000000000007
 21
1.400000000000007
 31
0.9999999999999999
  0
POLYLINE
  5
2C3
330
86
100
AcDbEntity
  8
0
 62
     0
100
AcDbPolyFaceMesh
 66
     1
 10
0.0
 20
0.0
 30
0.0
 70
    64
 71
     4
 72
     2
1001
ACAD_MATERIAL_MAPPER
1070
     1
1070
     1
1070
     1
1011
0.0
1021
0.0
1031
0.0
1011
-2.54
1021
0.0
1031
0.0
1011
0.0
1021
0.0
1031
2.54
1011
0.0
1021
1.0
1031
0.0
  0
VERTEX
  5
2C4
330
2C3
100
AcDbEntity
  8
0
 62
     0
100
AcDbVertex
100
AcDbPolyFaceMeshVertex
 10
1.400000000000007
 20
1.400000000000007
 30
0.9999999999999999
 70
   192
  0
VERTEX
  5
2C5
330
2C3
100
AcDbEntity
  8
0
 62
     0
100
AcDbVertex
100
AcDbPolyFaceMeshVertex
 10
100.8
 20
1.400000000000007
 30
0.0
 70
   192
  0
VERTEX
  5
2C6
330
2C3
100
AcDbEntity
  8
0
 62
     0
100
AcDbVertex
100
AcDbPolyFaceMeshVertex
 10
1.400000000000007
 20
1.400000000000007
 30
0.0
 70
   192
  0
VERTEX
  5
2C7
330
2C3
100
AcDbEntity
  8
0
 62
     0
100
AcDbVertex
100
AcDbPolyFaceMeshVertex
 10
100.8
 20
1.400000000000007
 30
0.9999999999999999
 70
   192
  0
VERTEX
  5
2C8
330
2C3
100
AcDbEntity
  8
0
 62
     0
100
AcDbFaceRecord
 10
0.0
 20
0.0
 30
0.0
 70
   128
 71
    -1
 72
     2
 73
     3
  0
VERTEX
  5
2C9
330
2C3
100
AcDbEntity
  8
0
 62
     0
100
AcDbFaceRecord
 10
0.0
 20
0.0
 30
0.0
 70
   128
 71
    -2
 72
     1
 73
     4
  0
SEQEND
  5
2CA
330
2C3
100
AcDbEntity
  8
0
 62
     0
  0
LINE
  5
2CB
330
86
100
AcDbEntity
  8
0
 62
     5
100
AcDbLine
 10
1.400000000000007
 20
1.400000000000007
 30
0.0
 11
100.8
 21
1.400000000000007
 31
0.0
  0
LINE
  5
2CC
330
86
100
AcDbEntity
  8
0
 62
     0
100
AcDbLine
 10
1.400000000000007
 20
1.400000000000007
 30
0.0
 11
1.400000000000007
 21
1.400000000000007
 31
0.9999999999999999
  0
LINE
  5
2CD
330
86
100
AcDbEntity
  8
0
 62
     5
100
AcDbLine
 10
1.400000000000007
 20
1.400000000000007
 30
0.9999999999999999
 11
100.8
 21
1.400000000000007
 31
0.9999999999999999
  0
LINE
  5
2CE
330
86
100
AcDbEntity
  8
0
 62
     0
100
AcDbLine
 10
100.8
 20
1.400000000000007
 30
0.0
 11
100.8
 21
1.400000000000007
 31
0.9999999999999999
  0
POLYLINE
  5
2CF
330
86
100
AcDbEntity
  8
0
 62
     0
100
AcDbPolyFaceMesh
 66
     1
 10
0.0
 20
0.0
 30
0.0
 70
    64
 71
     4
 72
     2
1001
ACAD_MATERIAL_MAPPER
1070
     1
1070
     1
1070
     1
1011
0.0
1021
0.0000000000000002
1031
0.0
1011
0.0
1021
-2.539999999999999
1031
0.0
1011
0.0
1021
0.0000000000000002
1031
2.54
1011
1.0
1021
0.0000000000000002
1031
0.0
  0
VERTEX
  5
2D0
330
2CF
100
AcDbEntity
  8
0
 62
     0
100
AcDbVertex
100
AcDbPolyFaceMeshVertex
 10
100.8
 20
23.4
 30
0.9999999999999999
 70
   192
  0
VERTEX
  5
2D1
330
2CF
100
AcDbEntity
  8
0
 62
     0
100
AcDbVertex
100
AcDbPolyFaceMeshVertex
 10
100.8
 20
1.400000000000007
 30
0.0
 70
   192
  0
VERTEX
  5
2D2
330
2CF
100
AcDbEntity
  8
0
 62
     0
100
AcDbVertex
100
AcDbPolyFaceMeshVertex
 10
100.8
 20
1.400000000000007
 30
0.9999999999999999
 70
   192
  0
VERTEX
  5
2D3
330
2CF
100
AcDbEntity
  8
0
 62
     0
100
AcDbVertex
100
AcDbPolyFaceMeshVertex
 10
100.8
 20
23.4
 30
0.0
 70
   192
  0
VERTEX
  5
2D4
330
2CF
100
AcDbEntity
  8
0
 62
     0
100
AcDbFaceRecord
 10
0.0
 20
0.0
 30
0.0
 70
   128
 71
    -1
 72
     2
 73
     3
  0
VERTEX
  5
2D5
330
2CF
100
AcDbEntity
  8
0
 62
     0
100
AcDbFaceRecord
 10
0.0
 20
0.0
 30
0.0
 70
   128
 71
    -2
 72
     1
 73
     4
  0
SEQEND
  5
2D6
330
2CF
100
AcDbEntity
  8
0
 62
     0
  0
LINE
  5
2D7
330
86
100
AcDbEntity
  8
0
 62
     5
100
AcDbLine
 10
100.8
 20
1.400000000000007
 30
0.0
 11
100.8
 21
23.4
 31
0.0
  0
LINE
  5
2D8
330
86
100
AcDbEntity
  8
0
 62
     0
100
AcDbLine
 10
100.8
 20
1.400000000000007
 30
0.0
 11
100.8
 21
1.400000000000007
 31
0.9999999999999999
  0
LINE
  5
2D9
330
86
100
AcDbEntity
  8
0
 62
     5
100
AcDbLine
 10
100.8
 20
1.400000000000007
 30
0.9999999999999999
 11
100.8
 21
23.4
 31
0.9999999999999999
  0
LINE
  5
2DA
330
86
100
AcDbEntity
  8
0
 62
     0
100
AcDbLine
 10
100.8
 20
23.4
 30
0.0
 11
100.8
 21
23.4
 31
0.9999999999999999
  0
POLYLINE
  5
2DB
330
86
100
AcDbEntity
  8
0
 62
     0
100
AcDbPolyFaceMesh
 66
     1
 10
0.0
 20
0.0
 30
0.0
 70
    64
 71
     4
 72
     2
1001
ACAD_MATERIAL_MAPPER
1070
     1
1070
     1
1070
     1
1011
0.0
1021
0.0
1031
0.0
1011
2.54
1021
0.0
1031
0.0
1011
0.0
1021
0.0
1031
2.54
1011
0.0
1021
1.0
1031
0.0
  0
VERTEX
  5
2DC
330
2DB
100
AcDbEntity
  8
0
 62
     0
100
AcDbVertex
100
AcDbPolyFaceMeshVertex
 10
100.8
 20
23.4
 30
0.9999999999999999
 70
   192
  0
VERTEX
  5
2DD
330
2DB
100
AcDbEntity
  8
0
 62
     0
100
AcDbVertex
100
AcDbPolyFaceMeshVertex
 10
1.400000000000007
 20
23.4
 30
0.0
 70
   192
  0
VERTEX
  5
2DE
330
2DB
100
AcDbEntity
  8
0
 62
     0
100
AcDbVertex
100
AcDbPolyFaceMeshVertex
 10
100.8
 20
23.4
 30
0.0
 70
   192
  0
VERTEX
  5
2DF
330
2DB
100
AcDbEntity
  8
0
 62
     0
100
AcDbVertex
100
AcDbPolyFaceMeshVertex
 10
1.400000000000007
 20
23.4
 30
0.9999999999999999
 70
   192
  0
VERTEX
  5
2E0
330
2DB
100
AcDbEntity
  8
0
 62
     0
100
AcDbFaceRecord
 10
0.0
 20
0.0
 30
0.0
 70
   128
 71
    -1
 72
     2
 73
     3
  0
VERTEX
  5
2E1
330
2DB
100
AcDbEntity
  8
0
 62
     0
100
AcDbFaceRecord
 10
0.0
 20
0.0
 30
0.0
 70
   128
 71
    -2
 72
     1
 73
     4
  0
SEQEND
  5
2E2
330
2DB
100
AcDbEntity
  8
0
 62
     0
  0
LINE
  5
2E3
330
86
100
AcDbEntity
  8
0
 62
     5
100
AcDbLine
 10
100.8
 20
23.4
 30
0.0
 11
1.400000000000007
 21
23.4
 31
0.0
  0
LINE
  5
2E4
330
86
100
AcDbEntity
  8
0
 62
     0
100
AcDbLine
 10
100.8
 20
23.4
 30
0.0
 11
100.8
 21
23.4
 31
0.9999999999999999
  0
LINE
  5
2E5
330
86
100
AcDbEntity
  8
0
 62
     5
100
AcDbLine
 10
100.8
 20
23.4
 30
0.9999999999999999
 11
1.400000000000007
 21
23.4
 31
0.9999999999999999
  0
LINE
  5
2E6
330
86
100
AcDbEntity
  8
0
 62
     0
100
AcDbLine
 10
1.400000000000007
 20
23.4
 30
0.0
 11
1.400000000000007
 21
23.4
 31
0.9999999999999999
  0
ENDBLK
  5
88
330
86
100
AcDbEntity
  8
0
100
AcDbBlockEnd
  0
BLOCK
  5
8A
330
89
100
AcDbEntity
  8
0
100
AcDbBlockBegin
  2
GRUPO_5
 70
     0
 10
0.0
 20
0.0
 30
0.0
  3
GRUPO_5
  1

  0
INSERT
  5
2E7
330
89
100
AcDbEntity
  8
0
 62
     0
100
AcDbBlockReference
 66
     1
  2
GRUPO_4
 10
3.599999999999976
 20
3.599999999999994
 30
4.499999999999999
  0
ATTRIB
  5
2E8
330
2E7
100
AcDbEntity
  8
0
100
AcDbText
 10
0.0
 20
0.0
 30
0.0
 40
1.0
  1

100
AcDbAttribute
  2
Skp_GroupInstanceName
 70
     0
  0
SEQEND
  5
2E9
330
2E7
100
AcDbEntity
  8
0
 62
     0
  0
INSERT
  5
2EA
330
89
100
AcDbEntity
  8
0
 62
     0
100
AcDbBlockReference
 66
     1
  2
GRUPO_3
 10
0.0
 20
0.0
 30
4.5
  0
ATTRIB
  5
2EB
330
2EA
100
AcDbEntity
  8
0
100
AcDbText
 10
0.0
 20
0.0
 30
0.0
 40
1.0
  1

100
AcDbAttribute
  2
Skp_GroupInstanceName
 70
     0
  0
SEQEND
  5
2EC
330
2EA
100
AcDbEntity
  8
0
 62
     0
  0
ENDBLK
  5
8B
330
89
100
AcDbEntity
  8
0
100
AcDbBlockEnd
  0
BLOCK
  5
8D
330
8C
100
AcDbEntity
  8
0
100
AcDbBlockBegin
  2
GRUPO_2
 70
     0
 10
0.0
 20
0.0
 30
0.0
  3
GRUPO_2
  1

  0
POLYLINE
  5
2EE
330
8C
100
AcDbEntity
  8
0
 62
     7
100
AcDbPolyFaceMesh
 66
     1
 10
0.0
 20
0.0
 30
0.0
 70
    64
 71
     4
 72
     2
1001
ACAD_MATERIAL_MAPPER
1070
     1
1070
     1
1070
     1
1011
0.0
1021
0.0
1031
0.0
1011
0.0
1021
-2.54
1031
0.0
1011
0.0
1021
0.0
1031
2.54
1011
1.0
1021
0.0
1031
0.0
  0
VERTEX
  5
2EF
330
2EE
100
AcDbEntity
  8
0
 62
     7
100
AcDbVertex
100
AcDbPolyFaceMeshVertex
 10
0.0
 20
0.2999999999999995
 30
21.98000000000001
 70
   192
  0
VERTEX
  5
2F0
330
2EE
100
AcDbEntity
  8
0
 62
     7
100
AcDbVertex
100
AcDbPolyFaceMeshVertex
 10
0.0
 20
0.0
 30
0.0
 70
   192
  0
VERTEX
  5
2F1
330
2EE
100
AcDbEntity
  8
0
 62
     7
100
AcDbVertex
100
AcDbPolyFaceMeshVertex
 10
0.0
 20
0.0
 30
21.98000000000001
 70
   192
  0
VERTEX
  5
2F2
330
2EE
100
AcDbEntity
  8
0
 62
     7
100
AcDbVertex
100
AcDbPolyFaceMeshVertex
 10
0.0
 20
0.2999999999999995
 30
0.0
 70
   192
  0
VERTEX
  5
2F3
330
2EE
100
AcDbEntity
  8
0
 62
     7
100
AcDbFaceRecord
 10
0.0
 20
0.0
 30
0.0
 70
   128
 71
    -1
 72
     2
 73
     3
  0
VERTEX
  5
2F4
330
2EE
100
AcDbEntity
  8
0
 62
     7
100
AcDbFaceRecord
 10
0.0
 20
0.0
 30
0.0
 70
   128
 71
    -2
 72
     1
 73
     4
  0
SEQEND
  5
2F5
330
2EE
100
AcDbEntity
  8
0
 62
     7
  0
LINE
  5
2F6
330
8C
100
AcDbEntity
  8
0
 62
     0
100
AcDbLine
 10
0.0
 20
0.0
 30
0.0
 11
0.0
 21
0.2999999999999995
 31
0.0
  0
LINE
  5
2F7
330
8C
100
AcDbEntity
  8
0
 62
     0
100
AcDbLine
 10
0.0
 20
0.0
 30
0.0
 11
0.0
 21
0.0
 31
21.98000000000001
  0
LINE
  5
2F8
330
8C
100
AcDbEntity
  8
0
 62
     0
100
AcDbLine
 10
0.0
 20
0.0
 30
21.98000000000001
 11
0.0
 21
0.2999999999999995
 31
21.98000000000001
  0
LINE
  5
2F9
330
8C
100
AcDbEntity
  8
0
 62
     0
100
AcDbLine
 10
0.0
 20
0.2999999999999995
 30
0.0
 11
0.0
 21
0.2999999999999995
 31
21.98000000000001
  0
POLYLINE
  5
2FA
330
8C
100
AcDbEntity
  8
0
 62
     7
100
AcDbPolyFaceMesh
 66
     1
 10
0.0
 20
0.0
 30
0.0
 70
    64
 71
     4
 72
     2
1001
ACAD_MATERIAL_MAPPER
1070
     1
1070
     1
1070
     1
1011
0.0
1021
0.0
1031
0.0
1011
2.54
1021
0.0
1031
0.0
1011
0.0
1021
0.0
1031
2.54
1011
0.0
1021
1.0
1031
0.0
  0
VERTEX
  5
2FB
330
2FA
100
AcDbEntity
  8
0
 62
     7
100
AcDbVertex
100
AcDbPolyFaceMeshVertex
 10
99.42099999999998
 20
0.0
 30
21.98000000000001
 70
   192
  0
VERTEX
  5
2FC
330
2FA
100
AcDbEntity
  8
0
 62
     7
100
AcDbVertex
100
AcDbPolyFaceMeshVertex
 10
0.0
 20
0.0
 30
0.0
 70
   192
  0
VERTEX
  5
2FD
330
2FA
100
AcDbEntity
  8
0
 62
     7
100
AcDbVertex
100
AcDbPolyFaceMeshVertex
 10
99.42099999999998
 20
0.0
 30
0.0
 70
   192
  0
VERTEX
  5
2FE
330
2FA
100
AcDbEntity
  8
0
 62
     7
100
AcDbVertex
100
AcDbPolyFaceMeshVertex
 10
0.0
 20
0.0
 30
21.98000000000001
 70
   192
  0
VERTEX
  5
2FF
330
2FA
100
AcDbEntity
  8
0
 62
     7
100
AcDbFaceRecord
 10
0.0
 20
0.0
 30
0.0
 70
   128
 71
    -1
 72
     2
 73
     3
  0
VERTEX
  5
300
330
2FA
100
AcDbEntity
  8
0
 62
     7
100
AcDbFaceRecord
 10
0.0
 20
0.0
 30
0.0
 70
   128
 71
    -2
 72
     1
 73
     4
  0
SEQEND
  5
301
330
2FA
100
AcDbEntity
  8
0
 62
     7
  0
LINE
  5
302
330
8C
100
AcDbEntity
  8
0
 62
     0
100
AcDbLine
 10
99.42099999999998
 20
0.0
 30
0.0
 11
0.0
 21
0.0
 31
0.0
  0
LINE
  5
303
330
8C
100
AcDbEntity
  8
0
 62
     0
100
AcDbLine
 10
99.42099999999998
 20
0.0
 30
0.0
 11
99.42099999999998
 21
0.0
 31
21.98000000000001
  0
LINE
  5
304
330
8C
100
AcDbEntity
  8
0
 62
     0
100
AcDbLine
 10
99.42099999999998
 20
0.0
 30
21.98000000000001
 11
0.0
 21
0.0
 31
21.98000000000001
  0
LINE
  5
305
330
8C
100
AcDbEntity
  8
0
 62
     0
100
AcDbLine
 10
0.0
 20
0.0
 30
0.0
 11
0.0
 21
0.0
 31
21.98000000000001
  0
POLYLINE
  5
306
330
8C
100
AcDbEntity
  8
0
 62
     7
100
AcDbPolyFaceMesh
 66
     1
 10
0.0
 20
0.0
 30
0.0
 70
    64
 71
     4
 72
     2
1001
ACAD_MATERIAL_MAPPER
1070
     1
1070
     1
1070
     1
1011
0.0
1021
0.0
1031
0.0
1011
2.54
1021
0.0
1031
0.0
1011
0.0
1021
2.54
1031
0.0
1011
0.0
1021
0.0
1031
1.0
  0
VERTEX
  5
307
330
306
100
AcDbEntity
  8
0
 62
     7
100
AcDbVertex
100
AcDbPolyFaceMeshVertex
 10
99.42099999999998
 20
0.0
 30
21.98000000000001
 70
   192
  0
VERTEX
  5
308
330
306
100
AcDbEntity
  8
0
 62
     7
100
AcDbVertex
100
AcDbPolyFaceMeshVertex
 10
0.0
 20
0.2999999999999995
 30
21.98000000000001
 70
   192
  0
VERTEX
  5
309
330
306
100
AcDbEntity
  8
0
 62
     7
100
AcDbVertex
100
AcDbPolyFaceMeshVertex
 10
0.0
 20
0.0
 30
21.98000000000001
 70
   192
  0
VERTEX
  5
30A
330
306
100
AcDbEntity
  8
0
 62
     7
100
AcDbVertex
100
AcDbPolyFaceMeshVertex
 10
99.42099999999998
 20
0.2999999999999995
 30
21.98000000000001
 70
   192
  0
VERTEX
  5
30B
330
306
100
AcDbEntity
  8
0
 62
     7
100
AcDbFaceRecord
 10
0.0
 20
0.0
 30
0.0
 70
   128
 71
    -1
 72
     2
 73
     3
  0
VERTEX
  5
30C
330
306
100
AcDbEntity
  8
0
 62
     7
100
AcDbFaceRecord
 10
0.0
 20
0.0
 30
0.0
 70
   128
 71
    -2
 72
     1
 73
     4
  0
SEQEND
  5
30D
330
306
100
AcDbEntity
  8
0
 62
     7
  0
LINE
  5
30E
330
8C
100
AcDbEntity
  8
0
 62
     0
100
AcDbLine
 10
99.42099999999998
 20
0.0
 30
21.98000000000001
 11
0.0
 21
0.0
 31
21.98000000000001
  0
LINE
  5
30F
330
8C
100
AcDbEntity
  8
0
 62
     0
100
AcDbLine
 10
99.42099999999998
 20
0.2999999999999995
 30
21.98000000000001
 11
99.42099999999998
 21
0.0
 31
21.98000000000001
  0
LINE
  5
310
330
8C
100
AcDbEntity
  8
0
 62
     0
100
AcDbLine
 10
0.0
 20
0.2999999999999995
 30
21.98000000000001
 11
99.42099999999998
 21
0.2999999999999995
 31
21.98000000000001
  0
LINE
  5
311
330
8C
100
AcDbEntity
  8
0
 62
     0
100
AcDbLine
 10
0.0
 20
0.0
 30
21.98000000000001
 11
0.0
 21
0.2999999999999995
 31
21.98000000000001
  0
POLYLINE
  5
312
330
8C
100
AcDbEntity
  8
0
 62
     7
100
AcDbPolyFaceMesh
 66
     1
 10
0.0
 20
0.0
 30
0.0
 70
    64
 71
     4
 72
     2
1001
ACAD_MATERIAL_MAPPER
1070
     1
1070
     1
1070
     1
1011
0.0
1021
0.0
1031
0.0
1011
-2.54
1021
0.0
1031
0.0
1011
0.0
1021
0.0
1031
2.54
1011
0.0
1021
1.0
1031
0.0
  0
VERTEX
  5
313
330
312
100
AcDbEntity
  8
0
 62
     7
100
AcDbVertex
100
AcDbPolyFaceMeshVertex
 10
0.0
 20
0.2999999999999995
 30
21.98000000000001
 70
   192
  0
VERTEX
  5
314
330
312
100
AcDbEntity
  8
0
 62
     7
100
AcDbVertex
100
AcDbPolyFaceMeshVertex
 10
99.42099999999998
 20
0.2999999999999995
 30
0.0
 70
   192
  0
VERTEX
  5
315
330
312
100
AcDbEntity
  8
0
 62
     7
100
AcDbVertex
100
AcDbPolyFaceMeshVertex
 10
0.0
 20
0.2999999999999995
 30
0.0
 70
   192
  0
VERTEX
  5
316
330
312
100
AcDbEntity
  8
0
 62
     7
100
AcDbVertex
100
AcDbPolyFaceMeshVertex
 10
99.42099999999998
 20
0.2999999999999995
 30
21.98000000000001
 70
   192
  0
VERTEX
  5
317
330
312
100
AcDbEntity
  8
0
 62
     7
100
AcDbFaceRecord
 10
0.0
 20
0.0
 30
0.0
 70
   128
 71
    -1
 72
     2
 73
     3
  0
VERTEX
  5
318
330
312
100
AcDbEntity
  8
0
 62
     7
100
AcDbFaceRecord
 10
0.0
 20
0.0
 30
0.0
 70
   128
 71
    -2
 72
     1
 73
     4
  0
SEQEND
  5
319
330
312
100
AcDbEntity
  8
0
 62
     7
  0
LINE
  5
31A
330
8C
100
AcDbEntity
  8
0
 62
     0
100
AcDbLine
 10
0.0
 20
0.2999999999999995
 30
0.0
 11
99.42099999999998
 21
0.2999999999999995
 31
0.0
  0
LINE
  5
31B
330
8C
100
AcDbEntity
  8
0
 62
     0
100
AcDbLine
 10
0.0
 20
0.2999999999999995
 30
0.0
 11
0.0
 21
0.2999999999999995
 31
21.98000000000001
  0
LINE
  5
31C
330
8C
100
AcDbEntity
  8
0
 62
     0
100
AcDbLine
 10
0.0
 20
0.2999999999999995
 30
21.98000000000001
 11
99.42099999999998
 21
0.2999999999999995
 31
21.98000000000001
  0
LINE
  5
31D
330
8C
100
AcDbEntity
  8
0
 62
     0
100
AcDbLine
 10
99.42099999999998
 20
0.2999999999999995
 30
0.0
 11
99.42099999999998
 21
0.2999999999999995
 31
21.98000000000001
  0
POLYLINE
  5
31E
330
8C
100
AcDbEntity
  8
0
 62
     7
100
AcDbPolyFaceMesh
 66
     1
 10
0.0
 20
0.0
 30
0.0
 70
    64
 71
     4
 72
     2
1001
ACAD_MATERIAL_MAPPER
1070
     1
1070
     1
1070
     1
1011
0.0
1021
0.0
1031
0.0
1011
0.0
1021
2.54
1031
0.0
1011
0.0
1021
0.0
1031
2.54
1011
1.0
1021
0.0
1031
0.0
  0
VERTEX
  5
31F
330
31E
100
AcDbEntity
  8
0
 62
     7
100
AcDbVertex
100
AcDbPolyFaceMeshVertex
 10
99.42099999999998
 20
0.2999999999999995
 30
0.0
 70
   192
  0
VERTEX
  5
320
330
31E
100
AcDbEntity
  8
0
 62
     7
100
AcDbVertex
100
AcDbPolyFaceMeshVertex
 10
99.42099999999998
 20
0.0
 30
21.98000000000001
 70
   192
  0
VERTEX
  5
321
330
31E
100
AcDbEntity
  8
0
 62
     7
100
AcDbVertex
100
AcDbPolyFaceMeshVertex
 10
99.42099999999998
 20
0.0
 30
0.0
 70
   192
  0
VERTEX
  5
322
330
31E
100
AcDbEntity
  8
0
 62
     7
100
AcDbVertex
100
AcDbPolyFaceMeshVertex
 10
99.42099999999998
 20
0.2999999999999995
 30
21.98000000000001
 70
   192
  0
VERTEX
  5
323
330
31E
100
AcDbEntity
  8
0
 62
     7
100
AcDbFaceRecord
 10
0.0
 20
0.0
 30
0.0
 70
   128
 71
    -1
 72
     2
 73
     3
  0
VERTEX
  5
324
330
31E
100
AcDbEntity
  8
0
 62
     7
100
AcDbFaceRecord
 10
0.0
 20
0.0
 30
0.0
 70
   128
 71
    -2
 72
     1
 73
     4
  0
SEQEND
  5
325
330
31E
100
AcDbEntity
  8
0
 62
     7
  0
LINE
  5
326
330
8C
100
AcDbEntity
  8
0
 62
     0
100
AcDbLine
 10
99.42099999999998
 20
0.2999999999999995
 30
0.0
 11
99.42099999999998
 21
0.0
 31
0.0
  0
LINE
  5
327
330
8C
100
AcDbEntity
  8
0
 62
     0
100
AcDbLine
 10
99.42099999999998
 20
0.2999999999999995
 30
0.0
 11
99.42099999999998
 21
0.2999999999999995
 31
21.98000000000001
  0
LINE
  5
328
330
8C
100
AcDbEntity
  8
0
 62
     0
100
AcDbLine
 10
99.42099999999998
 20
0.2999999999999995
 30
21.98000000000001
 11
99.42099999999998
 21
0.0
 31
21.98000000000001
  0
LINE
  5
329
330
8C
100
AcDbEntity
  8
0
 62
     0
100
AcDbLine
 10
99.42099999999998
 20
0.0
 30
0.0
 11
99.42099999999998
 21
0.0
 31
21.98000000000001
  0
POLYLINE
  5
32A
330
8C
100
AcDbEntity
  8
0
 62
     7
100
AcDbPolyFaceMesh
 66
     1
 10
0.0
 20
0.0
 30
0.0
 70
    64
 71
     4
 72
     2
1001
ACAD_MATERIAL_MAPPER
1070
     1
1070
     1
1070
     1
1011
0.0
1021
0.0
1031
0.0
1011
-2.54
1021
0.0
1031
0.0
1011
0.0
1021
2.54
1031
0.0
1011
0.0
1021
0.0
1031
1.0
  0
VERTEX
  5
32B
330
32A
100
AcDbEntity
  8
0
 62
     7
100
AcDbVertex
100
AcDbPolyFaceMeshVertex
 10
99.42099999999998
 20
0.2999999999999995
 30
0.0
 70
   192
  0
VERTEX
  5
32C
330
32A
100
AcDbEntity
  8
0
 62
     7
100
AcDbVertex
100
AcDbPolyFaceMeshVertex
 10
0.0
 20
0.0
 30
0.0
 70
   192
  0
VERTEX
  5
32D
330
32A
100
AcDbEntity
  8
0
 62
     7
100
AcDbVertex
100
AcDbPolyFaceMeshVertex
 10
0.0
 20
0.2999999999999995
 30
0.0
 70
   192
  0
VERTEX
  5
32E
330
32A
100
AcDbEntity
  8
0
 62
     7
100
AcDbVertex
100
AcDbPolyFaceMeshVertex
 10
99.42099999999998
 20
0.0
 30
0.0
 70
   192
  0
VERTEX
  5
32F
330
32A
100
AcDbEntity
  8
0
 62
     7
100
AcDbFaceRecord
 10
0.0
 20
0.0
 30
0.0
 70
   128
 71
    -1
 72
     2
 73
     3
  0
VERTEX
  5
330
330
32A
100
AcDbEntity
  8
0
 62
     7
100
AcDbFaceRecord
 10
0.0
 20
0.0
 30
0.0
 70
   128
 71
    -2
 72
     1
 73
     4
  0
SEQEND
  5
331
330
32A
100
AcDbEntity
  8
0
 62
     7
  0
LINE
  5
332
330
8C
100
AcDbEntity
  8
0
 62
     0
100
AcDbLine
 10
99.42099999999998
 20
0.0
 30
0.0
 11
0.0
 21
0.0
 31
0.0
  0
LINE
  5
333
330
8C
100
AcDbEntity
  8
0
 62
     0
100
AcDbLine
 10
0.0
 20
0.0
 30
0.0
 11
0.0
 21
0.2999999999999995
 31
0.0
  0
LINE
  5
334
330
8C
100
AcDbEntity
  8
0
 62
     0
100
AcDbLine
 10
0.0
 20
0.2999999999999995
 30
0.0
 11
99.42099999999998
 21
0.2999999999999995
 31
0.0
  0
LINE
  5
335
330
8C
100
AcDbEntity
  8
0
 62
     0
100
AcDbLine
 10
99.42099999999998
 20
0.2999999999999995
 30
0.0
 11
99.42099999999998
 21
0.0
 31
0.0
  0
ENDBLK
  5
8E
330
8C
100
AcDbEntity
  8
0
100
AcDbBlockEnd
  0
ENDSEC
  0
SECTION
  2
ENTITIES
  0
INSERT
  5
336
330
1F
100
AcDbEntity
  8
0
 62
     0
100
AcDbBlockReference
 66
     1
  2
GRUPO_5
 10
0.0
 20
0.0000000000000014
 30
-4.499999999999997
210
0.0
220
-1.0
230
1.526556658859590E-16
  0
ATTRIB
  5
337
330
336
100
AcDbEntity
  8
0
100
AcDbText
 10
0.0
 20
0.0
 30
0.0
 40
1.0
  1

100
AcDbAttribute
  2
Skp_GroupInstanceName
 70
     0
  0
SEQEND
  5
338
330
336
100
AcDbEntity
  8
0
 62
     0
  0
INSERT
  5
339
330
1F
100
AcDbEntity
  8
0
 62
     0
100
AcDbBlockReference
 66
     1
  2
GRUPO_2
 10
4.978999999999994
 20
-0.3000000000000009
 30
5.000000000000002
  0
ATTRIB
  5
33A
330
339
100
AcDbEntity
  8
0
100
AcDbText
 10
0.0
 20
0.0
 30
0.0
 40
1.0
  1

100
AcDbAttribute
  2
Skp_GroupInstanceName
 70
     0
  0
SEQEND
  5
33B
330
339
100
AcDbEntity
  8
0
 62
     0
  0
ENDSEC
  0
SECTION
  2
OBJECTS
  0
DICTIONARY
  5
C
330
0
100
AcDbDictionary
  3
ACAD_GROUP
350
D
  3
ACAD_LAYOUT
350
1A
  3
ACAD_MATERIAL
350
43
  3
ACAD_MLEADERSTYLE
350
6B
  3
ACAD_MLINESTYLE
350
17
  3
ACAD_PLOTSETTINGS
350
19
  3
ACAD_SCALELIST
350
47
  3
ACAD_VISUALSTYLE
350
2A
  3
ACDBHEADERROUNDTRIPXREC
350
33C
  3
ACDBVARIABLEDICTIONARY
350
35D
  0
DICTIONARY
  5
364
330
8
100
AcDbDictionary
280
     1
  3
ACAD_XREC_ROUNDTRIP
360
365
  0
DICTIONARY
  5
D
102
{ACAD_REACTORS
330
C
102
}
330
C
100
AcDbDictionary
  0
DICTIONARY
  5
1A
102
{ACAD_REACTORS
330
C
102
}
330
C
100
AcDbDictionary
  0
DICTIONARY
  5
43
102
{ACAD_REACTORS
330
C
102
}
330
C
100
AcDbDictionary
  3
BYBLOCK
350
45
  3
BYLAYER
350
44
  3
GLOBAL
350
46
  3
MATERIAL10_COPIA
350
2ED
  3
_AUTO_
350
CE
  3
_AUTO_1
350
D7
  3
_AUTO_2
350
99
  0
DICTIONARY
  5
6B
102
{ACAD_REACTORS
330
C
102
}
330
C
100
AcDbDictionary
  3
STANDARD
350
6C
  0
DICTIONARY
  5
17
102
{ACAD_REACTORS
330
C
102
}
330
C
100
AcDbDictionary
  3
STANDARD
350
18
  0
DICTIONARY
  5
19
102
{ACAD_REACTORS
330
C
102
}
330
C
100
AcDbDictionary
  0
DICTIONARY
  5
47
102
{ACAD_REACTORS
330
C
102
}
330
C
100
AcDbDictionary
  3
A0
350
48
  3
A1
350
49
  3
A2
350
4A
  3
A3
350
4B
  3
A4
350
4C
  3
A5
350
4D
  3
A6
350
4E
  3
A7
350
4F
  3
A8
350
50
  3
A9
350
51
  3
B0
350
52
  3
B1
350
53
  3
B2
350
54
  3
B3
350
55
  3
B4
350
56
  3
B5
350
57
  3
B6
350
58
  3
B7
350
59
  3
B8
350
5A
  3
B9
350
5B
  3
C0
350
5C
  3
C1
350
5D
  3
C2
350
5E
  3
C3
350
5F
  3
C4
350
60
  3
C5
350
61
  3
C6
350
62
  3
C7
350
63
  3
C8
350
64
  3
C9
350
65
  3
D0
350
66
  3
D1
350
67
  3
D2
350
68
  0
DICTIONARY
  5
2A
102
{ACAD_REACTORS
330
C
102
}
330
C
100
AcDbDictionary
  3
2DWIREFRAME
350
2F
  3
BASIC
350
32
  3
BRIGHTEN
350
36
  3
COLORCHANGE
350
3A
  3
CONCEPTUAL
350
34
  3
DIM
350
35
  3
EDGECOLOROFF
350
3D
  3
FACEPATTERN
350
39
  3
FLAT
350
2B
  3
FLATWITHEDGES
350
2C
  3
GOURAUD
350
2D
  3
GOURAUDWITHEDGES
350
2E
  3
HIDDEN
350
31
  3
JITTEROFF
350
3B
  3
LINEPATTERN
350
38
  3
OVERHANGOFF
350
3C
  3
REALISTIC
350
33
  3
SHADED
350
42
  3
SHADED_WITH_EDGES
350
41
  3
SHADES_OF_GRAY
350
3E
  3
SKETCHY
350
3F
  3
THICKEN
350
37
  3
WIREFRAME
350
30
  3
X-RAY
350
40
  0
DICTIONARY
  5
33C
102
{ACAD_REACTORS
330
C
102
}
330
C
100
AcDbDictionary
  3
CEPSNID
350
346
  3
CEPSNTYPE
350
345
  3
DIMSTYLEDATA
350
35C
  3
FINGERPRINTGUID
350
347
  3
HYPERLINKBASE
350
33F
  3
INSUNITS
350
344
  3
LAYOUTDICT
350
341
  3
LWETCUNION
350
343
  3
PLOTSETDICT
350
342
  3
PSVPSCALE
350
349
  3
PUCSBASE
350
34C
  3
PUCSORGBACK
350
352
  3
PUCSORGBOTTOM
350
34E
  3
PUCSORGFRONT
350
351
  3
PUCSORGLEFT
350
34F
  3
PUCSORGRIGHT
350
350
  3
PUCSORGTOP
350
34D
  3
PUCSORTHOREF
350
34A
  3
PUCSORTHOVIEW
350
34B
  3
STYLESHEET
350
340
  3
TSTACKALIGN
350
33D
  3
TSTACKSIZE
350
33E
  3
UCSBASE
350
355
  3
UCSORGBACK
350
35B
  3
UCSORGBOTTOM
350
357
  3
UCSORGFRONT
350
35A
  3
UCSORGLEFT
350
358
  3
UCSORGRIGHT
350
359
  3
UCSORGTOP
350
356
  3
UCSORTHOREF
350
353
  3
UCSORTHOVIEW
350
354
  3
VERSIONGUID
350
348
  0
DICTIONARY
  5
35D
102
{ACAD_REACTORS
330
C
102
}
330
C
100
AcDbDictionary
  3
CANNOSCALE
350
366
  3
CMLEADERSTYLE
350
35F
  3
CTABLESTYLE
350
35E
  3
DIMASSOC
350
362
  3
HIDETEXT
350
363
  3
MSLTSCALE
350
367
  0
XRECORD
  5
365
102
{ACAD_REACTORS
330
364
102
}
330
364
100
AcDbXrecord
102
VTR_0.000_0.000_1.000_1.000_VISUALSTYLE
340
2F
102
VTR_0.000_0.000_1.000_1.000_GRIDDISPLAY
 70
     3
102
VTR_0.000_0.000_1.000_1.000_GRIDMAJOR
 70
     5
102
VTR_0.000_0.000_1.000_1.000_DEFAULTLIGHTING
280
     1
102
VTR_0.000_0.000_1.000_1.000_DEFAULTLIGHTINGTYPE
 70
     1
102
VTR_0.000_0.000_1.000_1.000_BRIGHTNESS
141
0.0
102
VTR_0.000_0.000_1.000_1.000_CONTRAST
142
0.0
  0
MATERIAL
  5
45
102
{ACAD_REACTORS
330
43
102
}
102
{ACAD_XDICTIONARY
360
36A
102
}
330
43
100
AcDbMaterial
  1
BYBLOCK
  0
MATERIAL
  5
44
102
{ACAD_REACTORS
330
43
102
}
102
{ACAD_XDICTIONARY
360
368
102
}
330
43
100
AcDbMaterial
  1
BYLAYER
  0
MATERIAL
  5
46
102
{ACAD_REACTORS
330
43
102
}
102
{ACAD_XDICTIONARY
360
36C
102
}
330
43
100
AcDbMaterial
  1
GLOBAL
  0
MATERIAL
  5
2ED
102
{ACAD_REACTORS
330
43
102
}
102
{ACAD_XDICTIONARY
360
374
102
}
330
43
100
AcDbMaterial
  1
MATERIAL10_COPIA
140
0.5
  0
MATERIAL
  5
CE
102
{ACAD_REACTORS
330
43
102
}
102
{ACAD_XDICTIONARY
360
370
102
}
330
43
100
AcDbMaterial
  1
_AUTO_
  0
MATERIAL
  5
D7
102
{ACAD_REACTORS
330
43
102
}
102
{ACAD_XDICTIONARY
360
372
102
}
330
43
100
AcDbMaterial
  1
_AUTO_1
  0
MATERIAL
  5
99
102
{ACAD_REACTORS
330
43
102
}
102
{ACAD_XDICTIONARY
360
36E
102
}
330
43
100
AcDbMaterial
  1
_AUTO_2
  0
ACAD_PROXY_OBJECT
  5
6C
102
{ACAD_REACTORS
330
6B
102
}
330
6B
100
AcDbProxyObject
 90
      499
 91
      505
 93
      610
310
40901902A4063FBFFFFFE056BD1B81E855B9FC0AD7A3703D0AD73F4214DD185B99185C9900AD7A3703D0AC73F90141901A02B5E8DC0F42B1CFC02B5E8DC0F42B1CFE5764000000000000300FC0
340
14
340
0
340
11
340
0
 94
        0
1001
ACAD_MLEADERVER
1070
     2
  0
MLINESTYLE
  5
18
102
{ACAD_REACTORS
330
17
102
}
330
17
100
AcDbMlineStyle
  2
Standard
 70
     0
  3

 62
   256
 51
90.0
 52
90.0
 71
     2
 49
0.5
 62
   256
  6
BYLAYER
 49
-0.5
 62
   256
  6
BYLAYER
  0
ACAD_PROXY_OBJECT
  5
48
102
{ACAD_REACTORS
330
47
102
}
330
47
100
AcDbProxyObject
 90
      499
 91
      503
 93
       41
310
903313A31580
  0
ACAD_PROXY_OBJECT
  5
49
102
{ACAD_REACTORS
330
47
102
}
330
47
100
AcDbProxyObject
 90
      499
 91
      503
 93
      105
310
903313A324000000000000004000
  0
ACAD_PROXY_OBJECT
  5
4A
102
{ACAD_REACTORS
330
47
102
}
330
47
100
AcDbProxyObject
 90
      499
 91
      503
 93
      105
310
903313A344000000000000104000
  0
ACAD_PROXY_OBJECT
  5
4B
102
{ACAD_REACTORS
330
47
102
}
330
47
100
AcDbProxyObject
 90
      499
 91
      503
 93
      105
310
903313A354000000000000144000
  0
ACAD_PROXY_OBJECT
  5
4C
102
{ACAD_REACTORS
330
47
102
}
330
47
100
AcDbProxyObject
 90
      499
 91
      503
 93
      105
310
903313A384000000000000204000
  0
ACAD_PROXY_OBJECT
  5
4D
102
{ACAD_REACTORS
330
47
102
}
330
47
100
AcDbProxyObject
 90
      499
 91
      503
 93
      113
310
904313A31304000000000000244000
  0
ACAD_PROXY_OBJECT
  5
4E
102
{ACAD_REACTORS
330
47
102
}
330
47
100
AcDbProxyObject
 90
      499
 91
      503
 93
      113
310
904313A31364000000000000304000
  0
ACAD_PROXY_OBJECT
  5
4F
102
{ACAD_REACTORS
330
47
102
}
330
47
100
AcDbProxyObject
 90
      499
 91
      503
 93
      113
310
904313A32304000000000000344000
  0
ACAD_PROXY_OBJECT
  5
50
102
{ACAD_REACTORS
330
47
102
}
330
47
100
AcDbProxyObject
 90
      499
 91
      503
 93
      113
310
904313A333040000000000003E4000
  0
ACAD_PROXY_OBJECT
  5
51
102
{ACAD_REACTORS
330
47
102
}
330
47
100
AcDbProxyObject
 90
      499
 91
      503
 93
      113
310
904313A34304000000000000444000
  0
ACAD_PROXY_OBJECT
  5
52
102
{ACAD_REACTORS
330
47
102
}
330
47
100
AcDbProxyObject
 90
      499
 91
      503
 93
      113
310
904313A35304000000000000494000
  0
ACAD_PROXY_OBJECT
  5
53
102
{ACAD_REACTORS
330
47
102
}
330
47
100
AcDbProxyObject
 90
      499
 91
      503
 93
      121
310
905313A3130304000000000000594000
  0
ACAD_PROXY_OBJECT
  5
54
102
{ACAD_REACTORS
330
47
102
}
330
47
100
AcDbProxyObject
 90
      499
 91
      503
 93
      105
310
903323A310000000000000010100
  0
ACAD_PROXY_OBJECT
  5
55
102
{ACAD_REACTORS
330
47
102
}
330
47
100
AcDbProxyObject
 90
      499
 91
      503
 93
      105
310
903343A310000000000000410100
  0
ACAD_PROXY_OBJECT
  5
56
102
{ACAD_REACTORS
330
47
102
}
330
47
100
AcDbProxyObject
 90
      499
 91
      503
 93
      105
310
903383A310000000000000810100
  0
ACAD_PROXY_OBJECT
  5
57
102
{ACAD_REACTORS
330
47
102
}
330
47
100
AcDbProxyObject
 90
      499
 91
      503
 93
      113
310
90431303A310000000000000910100
  0
ACAD_PROXY_OBJECT
  5
58
102
{ACAD_REACTORS
330
47
102
}
330
47
100
AcDbProxyObject
 90
      499
 91
      503
 93
      121
310
9053130303A310000000000001650100
  0
ACAD_PROXY_OBJECT
  5
59
102
{ACAD_REACTORS
330
47
102
}
330
47
100
AcDbProxyObject
 90
      499
 91
      503
 93
      257
310
90E312F31323822203D2031272D3022000000000000200FC000000000000284000
  0
ACAD_PROXY_OBJECT
  5
5A
102
{ACAD_REACTORS
330
47
102
}
330
47
100
AcDbProxyObject
 90
      499
 91
      503
 93
      249
310
90D312F363422203D2031272D3022000000000000240FC000000000000284000
  0
ACAD_PROXY_OBJECT
  5
5B
102
{ACAD_REACTORS
330
47
102
}
330
47
100
AcDbProxyObject
 90
      499
 91
      503
 93
      249
310
90D312F333222203D2031272D3022000000000000280FC000000000000284000
  0
ACAD_PROXY_OBJECT
  5
5C
102
{ACAD_REACTORS
330
47
102
}
330
47
100
AcDbProxyObject
 90
      499
 91
      503
 93
      249
310
90D312F313622203D2031272D30220000000000002C0FC000000000000284000
  0
ACAD_PROXY_OBJECT
  5
5D
102
{ACAD_REACTORS
330
47
102
}
330
47
100
AcDbProxyObject
 90
      499
 91
      503
 93
      249
310
90D332F333222203D2031272D30220000000000002E0FC000000000000284000
  0
ACAD_PROXY_OBJECT
  5
5E
102
{ACAD_REACTORS
330
47
102
}
330
47
100
AcDbProxyObject
 90
      499
 91
      503
 93
      241
310
90C312F3822203D2031272D3022000000000000300FC000000000000284000
  0
ACAD_PROXY_OBJECT
  5
5F
102
{ACAD_REACTORS
330
47
102
}
330
47
100
AcDbProxyObject
 90
      499
 91
      503
 93
      249
310
90D332F313622203D2031272D3022000000000000320FC000000000000284000
  0
ACAD_PROXY_OBJECT
  5
60
102
{ACAD_REACTORS
330
47
102
}
330
47
100
AcDbProxyObject
 90
      499
 91
      503
 93
      241
310
90C312F3422203D2031272D3022000000000000340FC000000000000284000
  0
ACAD_PROXY_OBJECT
  5
61
102
{ACAD_REACTORS
330
47
102
}
330
47
100
AcDbProxyObject
 90
      499
 91
      503
 93
      241
310
90C332F3822203D2031272D3022000000000000360FC000000000000284000
  0
ACAD_PROXY_OBJECT
  5
62
102
{ACAD_REACTORS
330
47
102
}
330
47
100
AcDbProxyObject
 90
      499
 91
      503
 93
      241
310
90C312F3222203D2031272D3022000000000000380FC000000000000284000
  0
ACAD_PROXY_OBJECT
  5
63
102
{ACAD_REACTORS
330
47
102
}
330
47
100
AcDbProxyObject
 90
      499
 91
      503
 93
      241
310
90C332F3422203D2031272D30220000000000003A0FC000000000000284000
  0
ACAD_PROXY_OBJECT
  5
64
102
{ACAD_REACTORS
330
47
102
}
330
47
100
AcDbProxyObject
 90
      499
 91
      503
 93
      161
310
90A3122203D2031272D30224000000000000284000
  0
ACAD_PROXY_OBJECT
  5
65
102
{ACAD_REACTORS
330
47
102
}
330
47
100
AcDbProxyObject
 90
      499
 91
      503
 93
      257
310
90E312D312F3222203D2031272D30220000000000003E0FC000000000000284000
  0
ACAD_PROXY_OBJECT
  5
66
102
{ACAD_REACTORS
330
47
102
}
330
47
100
AcDbProxyObject
 90
      499
 91
      503
 93
      225
310
90A3322203D2031272D302200000000000002100000000000000284000
  0
ACAD_PROXY_OBJECT
  5
67
102
{ACAD_REACTORS
330
47
102
}
330
47
100
AcDbProxyObject
 90
      499
 91
      503
 93
      225
310
90A3622203D2031272D302200000000000006100000000000000284000
  0
ACAD_PROXY_OBJECT
  5
68
102
{ACAD_REACTORS
330
47
102
}
330
47
100
AcDbProxyObject
 90
      499
 91
      503
 93
      249
310
90D31272D3022203D2031272D30220000000000000A100000000000000284000
  0
ACAD_PROXY_OBJECT
  5
2F
102
{ACAD_REACTORS
330
2A
102
}
330
2A
100
AcDbProxyObject
 90
      499
 91
      501
 93
      436
310
42CC9915DA5C99599C985B595049028333333333333E33F0000000000000F90107901411070040501600405405064090741402480A0340
1001
ACAD
1000
AcDbSavedByObjectVersion
1070
     0
  0
ACAD_PROXY_OBJECT
  5
32
102
{ACAD_REACTORS
330
2A
102
}
330
2A
100
AcDbProxyObject
 90
      499
 91
      501
 93
      388
310
4150985CDA58D07406404333333333333E33F0000000000000F90107A41107004050150841D405064090741402480A0350
1001
ACAD
1000
AcDbSavedByObjectVersion
1070
     0
  0
ACAD_PROXY_OBJECT
  5
36
102
{ACAD_REACTORS
330
2A
102
}
330
2A
100
AcDbProxyObject
 90
      499
 91
      501
 93
      428
310
42109C9A59DA1D195B90C409028333333333333E33F0000000000000F9010790141107004050150841D405064090741402480A029950
1001
ACAD
1000
AcDbSavedByObjectVersion
1070
     0
  0
ACAD_PROXY_OBJECT
  5
3A
102
{ACAD_REACTORS
330
2A
102
}
330
2A
100
AcDbProxyObject
 90
      499
 91
      501
 93
      452
310
42D0DBDB1BDC90DA185B99D95104090240C333333333333E33F0000000000000F90108901411070040501508421405064090741402480A0350
1001
ACAD
1000
AcDbSavedByObjectVersion
1070
     0
  0
ACAD_PROXY_OBJECT
  5
34
102
{ACAD_REACTORS
330
2A
102
}
330
2A
100
AcDbProxyObject
 90
      499
 91
      501
 93
      500
310
4290DBDB98D95C1D1D585B10940D028333333333333E33F0000000000000F90107902409070040501000000000018199010841D405064090740C02480A0340
1001
ACAD
1000
AcDbSavedByObjectVersion
1070
     0
  0
ACAD_PROXY_OBJECT
  5
35
102
{ACAD_REACTORS
330
2A
102
}
330
2A
100
AcDbProxyObject
 90
      499
 91
      501
 93
      412
310
40D11A5B50B409028333333333333E33F0000000000000F9010790141107004050150841D405064090741402480A02677FFFFFD0
1001
ACAD
1000
AcDbSavedByObjectVersion
1070
     0
  0
ACAD_PROXY_OBJECT
  5
3D
102
{ACAD_REACTORS
330
2A
102
}
330
2A
100
AcDbProxyObject
 90
      499
 91
      501
 93
      452
310
43115919D950DBDB1BDC93D999916409028333333333333E33F0000000000000F9010790141107004050150841D405064090741402480A0350
1001
ACAD
1000
AcDbSavedByObjectVersion
1070
     0
  0
ACAD_PROXY_OBJECT
  5
39
102
{ACAD_REACTORS
330
2A
102
}
330
2A
100
AcDbProxyObject
 90
      499
 91
      501
 93
      444
310
42D19858D95C185D1D195C9B90F409028333333333333E33F0000000000000F9010790141107004050150841D405064090741402480A0350
1001
ACAD
1000
AcDbSavedByObjectVersion
1070
     0
  0
ACAD_PROXY_OBJECT
  5
2B
102
{ACAD_REACTORS
330
2A
102
}
330
2A
100
AcDbProxyObject
 90
      499
 91
      501
 93
      380
310
41119B185D240901404333333333333E33F0000000000000F9010740A907004050150841D405064090741402480A1B50
1001
ACAD
1000
AcDbSavedByObjectVersion
1070
     0
  0
ACAD_PROXY_OBJECT
  5
2C
102
{ACAD_REACTORS
330
2A
102
}
330
2A
100
AcDbProxyObject
 90
      499
 91
      501
 93
      468
310
43519B185D15DA5D1A115919D95CD0140901404333333333333E33F0000000000000F90107409019070040501600405405064090741402480A1B50
1001
ACAD
1000
AcDbSavedByObjectVersion
1070
     0
  0
ACAD_PROXY_OBJECT
  5
2D
102
{ACAD_REACTORS
330
2A
102
}
330
2A
100
AcDbProxyObject
 90
      499
 91
      501
 93
      404
310
41D1DBDD5C985D5910240902404333333333333E33F0000000000000F9010740A9070040501641D405064090741402480A1B50
1001
ACAD
1000
AcDbSavedByObjectVersion
1070
     0
  0
ACAD_PROXY_OBJECT
  5
2E
102
{ACAD_REACTORS
330
2A
102
}
330
2A
100
AcDbProxyObject
 90
      499
 91
      501
 93
      492
310
4411DBDD5C985D5915DA5D1A115919D95CD0340902404333333333333E33F0000000000000F90107409019070040501600405405064090741402480A1B50
1001
ACAD
1000
AcDbSavedByObjectVersion
1070
     0
  0
ACAD_PROXY_OBJECT
  5
31
102
{ACAD_REACTORS
330
2A
102
}
330
2A
100
AcDbProxyObject
 90
      499
 91
      501
 93
      476
310
41921A5919195B90640502408333333333333E33F0000000000000F901079024090700405020000000000001110200405405064090740C02480A0340
1001
ACAD
1000
AcDbSavedByObjectVersion
1070
     0
  0
ACAD_PROXY_OBJECT
  5
3B
102
{ACAD_REACTORS
330
2A
102
}
330
2A
100
AcDbProxyObject
 90
      499
 91
      501
 93
      428
310
42529A5D1D195C93D999914409028333333333333E33F0000000000000F9010790141107004050150A41D405064090741402480A0350
1001
ACAD
1000
AcDbSavedByObjectVersion
1070
     0
  0
ACAD_PROXY_OBJECT
  5
38
102
{ACAD_REACTORS
330
2A
102
}
330
2A
100
AcDbProxyObject
 90
      499
 91
      501
 93
      444
310
42D31A5B995C185D1D195C9B90E409028333333333333E33F0000000000000F9010790141107004050750841D405064090741402483A0350
1001
ACAD
1000
AcDbSavedByObjectVersion
1070
     0
  0
ACAD_PROXY_OBJECT
  5
3C
102
{ACAD_REACTORS
330
2A
102
}
330
2A
100
AcDbProxyObject
 90
      499
 91
      501
 93
      444
310
42D3DD995C9A185B99D3D999915409028333333333333E33F0000000000000F9010790141107004050150941D405064090741402480A0350
1001
ACAD
1000
AcDbSavedByObjectVersion
1070
     0
  0
ACAD_PROXY_OBJECT
  5
33
102
{ACAD_REACTORS
330
2A
102
}
330
2A
100
AcDbProxyObject
 90
      499
 91
      501
 93
      428
310
425499585B1A5CDD1A58D08409038333333333333E33F0000000000000F9010740A907004050150800405405064090740C02480A1B40
1001
ACAD
1000
AcDbSavedByObjectVersion
1070
     0
  0
ACAD_PROXY_OBJECT
  5
42
102
{ACAD_REACTORS
330
2A
102
}
330
2A
100
AcDbProxyObject
 90
      499
 91
      501
 93
      420
310
4194DA1859195911B40902404333333333333E33F0000000000000F9010740A41107004050150800405405064090840C02480A0B40
1001
ACAD
1000
AcDbSavedByObjectVersion
1070
     0
  0
ACAD_PROXY_OBJECT
  5
41
102
{ACAD_REACTORS
330
2A
102
}
330
2A
100
AcDbProxyObject
 90
      499
 91
      501
 93
      516
310
4454DA18591959081DDA5D1A08195919D95CD1A40902404333333333333E33F0000000000000F901074090142907004050250800405405064090740C02480A0B40
1001
ACAD
1000
AcDbSavedByObjectVersion
1070
     0
  0
ACAD_PROXY_OBJECT
  5
3E
102
{ACAD_REACTORS
330
2A
102
}
330
2A
100
AcDbProxyObject
 90
      499
 91
      501
 93
      532
310
4394DA1859195CC81BD98811DC985E5174090240C333333333333E33F0000000000000F901079024090741D01000000000000111010841D405064090740C02480A0340
1001
ACAD
1000
AcDbSavedByObjectVersion
1070
     0
  0
ACAD_PROXY_OBJECT
  5
3F
102
{ACAD_REACTORS
330
2A
102
}
330
2A
100
AcDbProxyObject
 90
      499
 91
      501
 93
      476
310
41D4DAD95D18DA1E51840502408333333333333E33F0000000000000F901079024090741D01000000000000111010B41D405064090741802480A0340
1001
ACAD
1000
AcDbSavedByObjectVersion
1070
     0
  0
ACAD_PROXY_OBJECT
  5
37
102
{ACAD_REACTORS
330
2A
102
}
330
2A
100
AcDbProxyObject
 90
      499
 91
      501
 93
      412
310
41D51A1A58DAD95B90D409028333333333333E33F0000000000000F9010790141107004050150C41D405064090741402480A0350
1001
ACAD
1000
AcDbSavedByObjectVersion
1070
     0
  0
ACAD_PROXY_OBJECT
  5
30
102
{ACAD_REACTORS
330
2A
102
}
330
2A
100
AcDbProxyObject
 90
      499
 91
      501
 93
      420
310
4255DA5C99599C985B595059028333333333333E33F0000000000000F90107901411070040501600405405064090740C02480A0340
1001
ACAD
1000
AcDbSavedByObjectVersion
1070
     0
  0
ACAD_PROXY_OBJECT
  5
40
102
{ACAD_REACTORS
330
2A
102
}
330
2A
100
AcDbProxyObject
 90
      499
 91
      501
 93
      404
310
41560B54985E51940902404000000000000E03F0000000000000F9010740501907004050150841D405064090740C02480A1B40
1001
ACAD
1000
AcDbSavedByObjectVersion
1070
     0
  0
XRECORD
  5
346
102
{ACAD_REACTORS
330
33C
102
}
330
33C
100
AcDbXrecord
340
0
  0
XRECORD
  5
345
102
{ACAD_REACTORS
330
33C
102
}
330
33C
100
AcDbXrecord
 90
        0
  0
XRECORD
  5
35C
102
{ACAD_REACTORS
330
33C
102
}
330
33C
100
AcDbXrecord
1000
DSTYLE
1002
{
1070
   171
 70
     2
1070
   143
 40
25.4
1070
   274
 70
     2
1070
    41
 40
0.18
1070
   141
 40
0.09
1070
   271
 70
     4
1070
    43
 40
0.38
1070
   278
 70
    46
1070
    44
 40
0.18
1070
    42
 40
0.0625
1070
   147
 40
0.09
1070
    77
 70
     0
1070
   272
 70
     4
1070
    73
 70
     1
1070
   172
 70
     0
1070
    74
 70
     1
1070
   283
 70
     1
1070
   340
340
11
1070
   140
 40
0.18
1070
   284
 70
     0
1070
    78
 70
     0
1002
}
  0
XRECORD
  5
347
102
{ACAD_REACTORS
330
33C
102
}
330
33C
100
AcDbXrecord
  1
{2117c984-9afc-b94b-ac61-ca0fb94b730a}
  0
XRECORD
  5
33F
102
{ACAD_REACTORS
330
33C
102
}
330
33C
100
AcDbXrecord
  1

  0
XRECORD
  5
344
102
{ACAD_REACTORS
330
33C
102
}
330
33C
100
AcDbXrecord
 90
        5
  0
XRECORD
  5
341
102
{ACAD_REACTORS
330
33C
102
}
330
33C
100
AcDbXrecord
340
1A
  0
XRECORD
  5
343
102
{ACAD_REACTORS
330
33C
102
}
330
33C
100
AcDbXrecord
 90
    10781
  0
XRECORD
  5
342
102
{ACAD_REACTORS
330
33C
102
}
330
33C
100
AcDbXrecord
340
19
  0
XRECORD
  5
349
102
{ACAD_REACTORS
330
33C
102
}
330
33C
100
AcDbXrecord
 40
0.0
  0
XRECORD
  5
34C
102
{ACAD_REACTORS
330
33C
102
}
330
33C
100
AcDbXrecord
340
0
  0
XRECORD
  5
352
102
{ACAD_REACTORS
330
33C
102
}
330
33C
100
AcDbXrecord
 10
0.0
 20
0.0
 30
0.0
  0
XRECORD
  5
34E
102
{ACAD_REACTORS
330
33C
102
}
330
33C
100
AcDbXrecord
 10
0.0
 20
0.0
 30
0.0
  0
XRECORD
  5
351
102
{ACAD_REACTORS
330
33C
102
}
330
33C
100
AcDbXrecord
 10
0.0
 20
0.0
 30
0.0
  0
XRECORD
  5
34F
102
{ACAD_REACTORS
330
33C
102
}
330
33C
100
AcDbXrecord
 10
0.0
 20
0.0
 30
0.0
  0
XRECORD
  5
350
102
{ACAD_REACTORS
330
33C
102
}
330
33C
100
AcDbXrecord
 10
0.0
 20
0.0
 30
0.0
  0
XRECORD
  5
34D
102
{ACAD_REACTORS
330
33C
102
}
330
33C
100
AcDbXrecord
 10
0.0
 20
0.0
 30
0.0
  0
XRECORD
  5
34A
102
{ACAD_REACTORS
330
33C
102
}
330
33C
100
AcDbXrecord
340
0
  0
XRECORD
  5
34B
102
{ACAD_REACTORS
330
33C
102
}
330
33C
100
AcDbXrecord
 70
     0
  0
XRECORD
  5
340
102
{ACAD_REACTORS
330
33C
102
}
330
33C
100
AcDbXrecord
  1

  0
XRECORD
  5
33D
102
{ACAD_REACTORS
330
33C
102
}
330
33C
100
AcDbXrecord
 90
        1
  0
XRECORD
  5
33E
102
{ACAD_REACTORS
330
33C
102
}
330
33C
100
AcDbXrecord
 90
       70
  0
XRECORD
  5
355
102
{ACAD_REACTORS
330
33C
102
}
330
33C
100
AcDbXrecord
340
0
  0
XRECORD
  5
35B
102
{ACAD_REACTORS
330
33C
102
}
330
33C
100
AcDbXrecord
 10
0.0
 20
0.0
 30
0.0
  0
XRECORD
  5
357
102
{ACAD_REACTORS
330
33C
102
}
330
33C
100
AcDbXrecord
 10
0.0
 20
0.0
 30
0.0
  0
XRECORD
  5
35A
102
{ACAD_REACTORS
330
33C
102
}
330
33C
100
AcDbXrecord
 10
0.0
 20
0.0
 30
0.0
  0
XRECORD
  5
358
102
{ACAD_REACTORS
330
33C
102
}
330
33C
100
AcDbXrecord
 10
0.0
 20
0.0
 30
0.0
  0
XRECORD
  5
359
102
{ACAD_REACTORS
330
33C
102
}
330
33C
100
AcDbXrecord
 10
0.0
 20
0.0
 30
0.0
  0
XRECORD
  5
356
102
{ACAD_REACTORS
330
33C
102
}
330
33C
100
AcDbXrecord
 10
0.0
 20
0.0
 30
0.0
  0
XRECORD
  5
353
102
{ACAD_REACTORS
330
33C
102
}
330
33C
100
AcDbXrecord
340
0
  0
XRECORD
  5
354
102
{ACAD_REACTORS
330
33C
102
}
330
33C
100
AcDbXrecord
 70
     0
  0
XRECORD
  5
348
102
{ACAD_REACTORS
330
33C
102
}
330
33C
100
AcDbXrecord
  1
{FAEB1C32-E019-11D5-929B-00C0DF256EC4}
  0
DICTIONARYVAR
  5
366
102
{ACAD_REACTORS
330
35D
102
}
330
35D
100
DictionaryVariables
280
     0
  1
1:1
  0
DICTIONARYVAR
  5
35F
102
{ACAD_REACTORS
330
35D
102
}
330
35D
100
DictionaryVariables
280
     0
  1
Standard
  0
DICTIONARYVAR
  5
35E
102
{ACAD_REACTORS
330
35D
102
}
330
35D
100
DictionaryVariables
280
     0
  1
Standard
  0
DICTIONARYVAR
  5
362
102
{ACAD_REACTORS
330
35D
102
}
330
35D
100
DictionaryVariables
280
     0
  1
2
  0
DICTIONARYVAR
  5
363
102
{ACAD_REACTORS
330
35D
102
}
330
35D
100
DictionaryVariables
280
     0
  1
1
  0
DICTIONARYVAR
  5
367
102
{ACAD_REACTORS
330
35D
102
}
330
35D
100
DictionaryVariables
280
     0
  1
1
  0
DICTIONARY
  5
36A
330
45
100
AcDbDictionary
280
     1
  3
ACAD_XREC_ROUNDTRIP
360
36B
  0
DICTIONARY
  5
368
330
44
100
AcDbDictionary
280
     1
  3
ACAD_XREC_ROUNDTRIP
360
369
  0
DICTIONARY
  5
36C
330
46
100
AcDbDictionary
280
     1
  3
ACAD_XREC_ROUNDTRIP
360
36D
  0
DICTIONARY
  5
374
330
2ED
100
AcDbDictionary
280
     1
  3
ACAD_XREC_ROUNDTRIP
360
375
  0
DICTIONARY
  5
370
330
CE
100
AcDbDictionary
280
     1
  3
ACAD_XREC_ROUNDTRIP
360
371
  0
DICTIONARY
  5
372
330
D7
100
AcDbDictionary
280
     1
  3
ACAD_XREC_ROUNDTRIP
360
373
  0
DICTIONARY
  5
36E
330
99
100
AcDbDictionary
280
     1
  3
ACAD_XREC_ROUNDTRIP
360
36F
  0
XRECORD
  5
36B
102
{ACAD_REACTORS
330
36A
102
}
330
36A
100
AcDbXrecord
102
MATERIAL
148
0.0
149
0.0
149
0.0
 93
        0
 94
      127
282
     0
 72
     1
 77
     1
171
     1
175
     1
179
     1
273
     0
  0
XRECORD
  5
369
102
{ACAD_REACTORS
330
368
102
}
330
368
100
AcDbXrecord
102
MATERIAL
148
0.0
149
0.0
149
0.0
 93
        0
 94
      127
282
     0
 72
     1
 77
     1
171
     1
175
     1
179
     1
273
     0
  0
XRECORD
  5
36D
102
{ACAD_REACTORS
330
36C
102
}
330
36C
100
AcDbXrecord
102
MATERIAL
148
0.0
149
0.0
149
0.0
 93
        0
 94
      127
282
     0
 72
     1
 77
     1
171
     1
175
     1
179
     1
273
     0
  0
XRECORD
  5
375
102
{ACAD_REACTORS
330
374
102
}
330
374
100
AcDbXrecord
102
MATERIAL
148
0.0
149
0.0
149
0.0
 93
        0
 94
        8
282
     0
 72
     1
 77
     1
171
     1
175
     1
179
     1
273
     0
  0
XRECORD
  5
371
102
{ACAD_REACTORS
330
370
102
}
330
370
100
AcDbXrecord
102
MATERIAL
148
0.0
149
0.0
149
0.0
 93
        0
 94
        0
282
     0
 72
     1
 77
     1
171
     1
175
     1
179
     1
273
     0
  0
XRECORD
  5
373
102
{ACAD_REACTORS
330
372
102
}
330
372
100
AcDbXrecord
102
MATERIAL
148
0.0
149
0.0
149
0.0
 93
        0
 94
        0
282
     0
 72
     1
 77
     1
171
     1
175
     1
179
     1
273
     0
  0
XRECORD
  5
36F
102
{ACAD_REACTORS
330
36E
102
}
330
36E
100
AcDbXrecord
102
MATERIAL
148
0.0
149
0.0
149
0.0
 93
        0
 94
        0
282
     0
 72
     1
 77
     1
171
     1
175
     1
179
     1
273
     0
  0
ENDSEC
  0
EOF
