  0
SECTION
  2
HEADER
  9
$ACADVER
  1
AC1014
  9
$ACADMAINTVER
 70
     9
  9
$DWGCODEPAGE
  3
MAC-ROMAN
  9
$INSBASE
 10
0.0
 20
0.0
 30
0.0
  9
$EXTMIN
 10
1.000000000000000E+20
 20
1.000000000000000E+20
 30
1.000000000000000E+20
  9
$EXTMAX
 10
-1.000000000000000E+20
 20
-1.000000000000000E+20
 30
-1.000000000000000E+20
  9
$LIMMIN
 10
0.0
 20
0.0
  9
$LIMMAX
 10
12.0
 20
9.0
  9
$ORTHOMODE
 70
     0
  9
$REGENMODE
 70
     1
  9
$FILLMODE
 70
     1
  9
$QTEXTMODE
 70
     0
  9
$MIRRTEXT
 70
     1
  9
$DRAGMODE
 70
     2
  9
$LTSCALE
 40
2.54
  9
$OSMODE
 70
    37
  9
$ATTMODE
 70
     1
  9
$TEXTSIZE
 40
0.2
  9
$TRACEWID
 40
0.05
  9
$TEXTSTYLE
  7
STANDARD
  9
$CLAYER
  8
0
  9
$CELTYPE
  6
BYLAYER
  9
$CECOLOR
 62
   256
  9
$CELTSCALE
 40
1.0
  9
$DELOBJ
 70
     1
  9
$DISPSILH
 70
     0
  9
$DIMSCALE
 40
1.0
  9
$DIMASZ
 40
0.18
  9
$DIMEXO
 40
0.0625
  9
$DIMDLI
 40
0.38
  9
$DIMRND
 40
0.0
  9
$DIMDLE
 40
0.0
  9
$DIMEXE
 40
0.18
  9
$DIMTP
 40
0.0
  9
$DIMTM
 40
0.0
  9
$DIMTXT
 40
0.18
  9
$DIMCEN
 40
0.09
  9
$DIMTSZ
 40
0.0
  9
$DIMTOL
 70
     0
  9
$DIMLIM
 70
     0
  9
$DIMTIH
 70
     1
  9
$DIMTOH
 70
     1
  9
$DIMSE1
 70
     0
  9
$DIMSE2
 70
     0
  9
$DIMTAD
 70
     0
  9
$DIMZIN
 70
     0
  9
$DIMBLK
  1

  9
$DIMASO
 70
     1
  9
$DIMSHO
 70
     1
  9
$DIMPOST
  1

  9
$DIMAPOST
  1

  9
$DIMALT
 70
     0
  9
$DIMALTD
 70
     2
  9
$DIMALTF
 40
25.4
  9
$DIMLFAC
 40
1.0
  9
$DIMTOFL
 70
     0
  9
$DIMTVP
 40
0.0
  9
$DIMTIX
 70
     0
  9
$DIMSOXD
 70
     0
  9
$DIMSAH
 70
     0
  9
$DIMBLK1
  1

  9
$DIMBLK2
  1

  9
$DIMSTYLE
  2
STANDARD
  9
$DIMCLRD
 70
     0
  9
$DIMCLRE
 70
     0
  9
$DIMCLRT
 70
     0
  9
$DIMTFAC
 40
1.0
  9
$DIMGAP
 40
0.09
  9
$DIMJUST
 70
     0
  9
$DIMSD1
 70
     0
  9
$DIMSD2
 70
     0
  9
$DIMTOLJ
 70
     1
  9
$DIMTZIN
 70
     0
  9
$DIMALTZ
 70
     0
  9
$DIMALTTZ
 70
     0
  9
$DIMFIT
 70
     3
  9
$DIMUPT
 70
     0
  9
$DIMUNIT
 70
     2
  9
$DIMDEC
 70
     4
  9
$DIMTDEC
 70
     4
  9
$DIMALTU
 70
     2
  9
$DIMALTTD
 70
     2
  9
$DIMTXSTY
  7
STANDARD
  9
$DIMAUNIT
 70
     0
  9
$LUNITS
 70
     2
  9
$LUPREC
 70
     4
  9
$SKETCHINC
 40
0.1
  9
$FILLETRAD
 40
0.5
  9
$AUNITS
 70
     0
  9
$AUPREC
 70
     0
  9
$MENU
  1
.
  9
$ELEVATION
 40
0.0
  9
$PELEVATION
 40
0.0
  9
$THICKNESS
 40
0.0
  9
$LIMCHECK
 70
     0
  9
$CHAMFERA
 40
0.0
  9
$CHAMFERB
 40
0.0
  9
$CHAMFERC
 40
0.0
  9
$CHAMFERD
 40
0.0
  9
$SKPOLY
 70
     0
  9
$TDCREATE
 40
2460073.657463866
  9
$TDUPDATE
 40
2460073.657464514
  9
$TDINDWG
 40
0.0000000116
  9
$TDUSRTIMER
 40
0.0000000116
  9
$USRTIMER
 70
     1
  9
$ANGBASE
 50
0.0
  9
$ANGDIR
 70
     0
  9
$PDMODE
 70
     0
  9
$PDSIZE
 40
0.0
  9
$PLINEWID
 40
0.0
  9
$COORDS
 70
     1
  9
$SPLFRAME
 70
     0
  9
$SPLINETYPE
 70
     6
  9
$SPLINESEGS
 70
     8
  9
$ATTDIA
 70
     0
  9
$ATTREQ
 70
     1
  9
$HANDLING
 70
     1
  9
$HANDSEED
  5
2BD
  9
$SURFTAB1
 70
     6
  9
$SURFTAB2
 70
     6
  9
$SURFTYPE
 70
     6
  9
$SURFU
 70
     6
  9
$SURFV
 70
     6
  9
$UCSNAME
  2

  9
$UCSORG
 10
0.0
 20
0.0
 30
0.0
  9
$UCSXDIR
 10
1.0
 20
0.0
 30
0.0
  9
$UCSYDIR
 10
0.0
 20
1.0
 30
0.0
  9
$PUCSNAME
  2

  9
$PUCSORG
 10
0.0
 20
0.0
 30
0.0
  9
$PUCSXDIR
 10
1.0
 20
0.0
 30
0.0
  9
$PUCSYDIR
 10
0.0
 20
1.0
 30
0.0
  9
$USERI1
 70
     0
  9
$USERI2
 70
     0
  9
$USERI3
 70
     0
  9
$USERI4
 70
     0
  9
$USERI5
 70
     0
  9
$USERR1
 40
0.0
  9
$USERR2
 40
0.0
  9
$USERR3
 40
0.0
  9
$USERR4
 40
0.0
  9
$USERR5
 40
0.0
  9
$WORLDVIEW
 70
     1
  9
$SHADEDGE
 70
     3
  9
$SHADEDIF
 70
    70
  9
$TILEMODE
 70
     1
  9
$MAXACTVP
 70
    64
  9
$PINSBASE
 10
0.0
 20
0.0
 30
0.0
  9
$PLIMCHECK
 70
     0
  9
$PEXTMIN
 10
1.000000000000000E+20
 20
1.000000000000000E+20
 30
1.000000000000000E+20
  9
$PEXTMAX
 10
-1.000000000000000E+20
 20
-1.000000000000000E+20
 30
-1.000000000000000E+20
  9
$PLIMMIN
 10
0.0
 20
0.0
  9
$PLIMMAX
 10
12.0
 20
9.0
  9
$UNITMODE
 70
     0
  9
$VISRETAIN
 70
     1
  9
$PLINEGEN
 70
     0
  9
$PSLTSCALE
 70
     1
  9
$TREEDEPTH
 70
  3020
  9
$PICKSTYLE
 70
     1
  9
$CMLSTYLE
  2
STANDARD
  9
$CMLJUST
 70
     0
  9
$CMLSCALE
 40
1.0
  9
$PROXYGRAPHICS
 70
     1
  9
$MEASUREMENT
 70
     1
  0
ENDSEC
  0
SECTION
  2
CLASSES
  0
CLASS
  1
ACDBDICTIONARYWDFLT
  2
AcDbDictionaryWithDefault
  3
ObjectDBX Classes
 90
        0
280
     0
281
     0
  0
CLASS
  1
VISUALSTYLE
  2
AcDbVisualStyle
  3
ObjectDBX Classes
 90
     4095
280
     0
281
     0
  0
CLASS
  1
MATERIAL
  2
AcDbMaterial
  3
ObjectDBX Classes
 90
     1153
280
     0
281
     0
  0
CLASS
  1
SCALE
  2
AcDbScale
  3
ObjectDBX Classes
 90
     1153
280
     0
281
     0
  0
CLASS
  1
TABLESTYLE
  2
AcDbTableStyle
  3
ObjectDBX Classes
 90
     4095
280
     0
281
     0
  0
CLASS
  1
MLEADERSTYLE
  2
AcDbMLeaderStyle
  3
ACDB_MLEADERSTYLE_CLASS
 90
     4095
280
     0
281
     0
  0
CLASS
  1
SUN
  2
AcDbSun
  3
SCENEOE
 90
     1153
280
     0
281
     0
  0
CLASS
  1
CAMERA
  2
AcDbCamera
  3
ACCAMERA
 90
      195
280
     0
281
     1
  0
CLASS
  1
DICTIONARYVAR
  2
AcDbDictionaryVar
  3
ObjectDBX Classes
 90
        0
280
     0
281
     0
  0
CLASS
  1
XRECORD
  2
AcDbXrecord
  3
ObjectDBX Classes
 90
        0
280
     0
281
     0
  0
CLASS
  1
LWPOLYLINE
  2
AcDbPolyline
  3
ObjectDBX Classes
 90
        0
280
     0
281
     1
  0
CLASS
  1
HATCH
  2
AcDbHatch
  3
ObjectDBX Classes
 90
        0
280
     0
281
     1
  0
CLASS
  1
ACDBPLACEHOLDER
  2
AcDbPlaceHolder
  3
ObjectDBX Classes
 90
        0
280
     0
281
     0
  0
CLASS
  1
LAYOUT
  2
AcDbLayout
  3
ObjectDBX Classes
 90
        0
280
     0
281
     0
  0
ENDSEC
  0
SECTION
  2
TABLES
  0
TABLE
  2
VPORT
  5
8
102
{ACAD_XDICTIONARY
360
2AE
102
}
330
0
100
AcDbSymbolTable
 70
     1
  0
VPORT
  5
29
330
8
100
AcDbSymbolTableRecord
100
AcDbViewportTableRecord
  2
*ACTIVE
 70
     0
 10
0.0
 20
0.0
 11
1.0
 21
1.0
 12
0.0
 22
0.0
 13
0.0
 23
0.0
 14
0.5
 24
0.5
 15
0.5
 25
0.5
 16
0.4718729445720219
 26
-0.8237445000892395
 36
0.314294325042083
 17
115.1308175339663
 27
-35.74494584588723
 37
121.4802549753034
 40
236.380576569828
 41
1.3333
 42
50.38394550081735
 43
-438.5521608405116
 44
2098.907839159489
 50
0.0
 51
0.0000000000000036
 71
     1
 72
   100
 73
     1
 74
     3
 75
     0
 76
     0
 77
     0
 78
     0
  0
ENDTAB
  0
TABLE
  2
LTYPE
  5
5
330
0
100
AcDbSymbolTable
 70
     1
  0
LTYPE
  5
14
330
5
100
AcDbSymbolTableRecord
100
AcDbLinetypeTableRecord
  2
BYBLOCK
 70
     0
  3

 72
    65
 73
     0
 40
0.0
  0
LTYPE
  5
15
330
5
100
AcDbSymbolTableRecord
100
AcDbLinetypeTableRecord
  2
BYLAYER
 70
     0
  3

 72
    65
 73
     0
 40
0.0
  0
LTYPE
  5
16
330
5
100
AcDbSymbolTableRecord
100
AcDbLinetypeTableRecord
  2
CONTINUOUS
 70
     0
  3
Solid line
 72
    65
 73
     0
 40
0.0
  0
ENDTAB
  0
TABLE
  2
LAYER
  5
2
330
0
100
AcDbSymbolTable
 70
     3
  0
LAYER
  5
10
330
2
100
AcDbSymbolTableRecord
100
AcDbLayerTableRecord
  2
0
 70
     0
 62
    13
  6
CONTINUOUS
  0
LAYER
  5
6E
330
2
100
AcDbSymbolTableRecord
100
AcDbLayerTableRecord
  2
P_LISTONES
 70
     0
 62
     6
  6
CONTINUOUS
  0
LAYER
  5
70
330
2
100
AcDbSymbolTableRecord
100
AcDbLayerTableRecord
  2
TEMPORARY_SYSTEM_CAMERAS_L
 70
     0
 62
     7
  6
CONTINUOUS
  0
ENDTAB
  0
TABLE
  2
STYLE
  5
3
330
0
100
AcDbSymbolTable
 70
     2
  0
STYLE
  5
11
330
3
100
AcDbSymbolTableRecord
100
AcDbTextStyleTableRecord
  2
STANDARD
 70
     0
 40
0.0
 41
1.0
 50
0.0
 71
     0
 42
0.2
  3
txt
  4

  0
STYLE
  5
72
330
3
100
AcDbSymbolTableRecord
100
AcDbTextStyleTableRecord
  2
LUCIDA_GRANDE
 70
     0
 40
0.0
 41
1.0
 50
0.0
 71
     0
 42
0.2
  3
Lucida Grande
  4

1001
ACAD
1000
Lucida Grande
1071
       34
  0
ENDTAB
  0
TABLE
  2
VIEW
  5
6
330
0
100
AcDbSymbolTable
 70
     1
  0
VIEW
  5
6F
330
6
100
AcDbSymbolTableRecord
100
AcDbViewTableRecord
  2
ESCENA1
 70
     0
 40
236.380576569828
 10
0.0
 20
0.0
 41
315.1662227405516
 11
23.77482072262696
 21
-41.50349799909428
 31
15.83538814413648
 12
115.1308175339663
 22
-35.74494584588723
 32
121.4802549753034
 42
50.38394550081735
 43
-438.5521608405116
 44
2098.907839159489
 50
0.0000000000000036
 71
     1
  0
ENDTAB
  0
TABLE
  2
UCS
  5
7
330
0
100
AcDbSymbolTable
 70
     0
  0
ENDTAB
  0
TABLE
  2
APPID
  5
9
330
0
100
AcDbSymbolTable
 70
     3
  0
APPID
  5
12
330
9
100
AcDbSymbolTableRecord
100
AcDbRegAppTableRecord
  2
ACAD
 70
     0
  0
APPID
  5
14D
330
9
100
AcDbSymbolTableRecord
100
AcDbRegAppTableRecord
  2
ACAD_MATERIAL_MAPPER
 70
     0
  0
APPID
  5
2BC
330
9
100
AcDbSymbolTableRecord
100
AcDbRegAppTableRecord
  2
ACAD_MLEADERVER
 70
     0
  0
ENDTAB
  0
TABLE
  2
DIMSTYLE
  5
A
330
0
100
AcDbSymbolTable
 70
     2
  0
DIMSTYLE
105
27
330
A
100
AcDbSymbolTableRecord
100
AcDbDimStyleTableRecord
  2
STANDARD
 70
     0
  3

  4

  5

  6

  7

 40
1.0
 41
0.18
 42
0.0625
 43
0.38
 44
0.18
 45
0.0
 46
0.0
 47
0.0
 48
0.0
140
0.18
141
0.09
142
0.0
143
25.4
144
1.0
145
0.0
146
1.0
147
0.09
 71
     0
 72
     0
 73
     1
 74
     1
 75
     0
 76
     0
 77
     0
 78
     0
170
     0
171
     2
172
     0
173
     0
174
     0
175
     0
176
     0
177
     0
178
     0
270
     2
271
     4
272
     4
273
     2
274
     2
340
11
275
     0
280
     0
281
     0
282
     0
283
     1
284
     0
285
     0
286
     0
287
     3
288
     0
  0
DIMSTYLE
105
73
330
A
100
AcDbSymbolTableRecord
100
AcDbDimStyleTableRecord
  2
DIMENSIONS
 70
     0
  3
cm
  4

  5

  6

  7

 40
1.0
 41
1.27
 42
1.27
 43
0.38
 44
1.27
 45
0.0
 46
0.0
 47
0.0
 48
0.0
140
2.54
141
0.09
142
0.0
143
25.4
144
1.0
145
0.0
146
1.0
147
0.254
 71
     0
 72
     0
 73
     1
 74
     1
 75
     0
 76
     0
 77
     0
 78
     0
170
     0
171
     2
172
     0
173
     0
174
     0
175
     0
176
     0
177
     0
178
     0
270
     2
271
     1
272
     4
273
     2
274
     2
340
72
275
     0
280
     0
281
     0
282
     0
283
     1
284
     0
285
     0
286
     0
287
     3
288
     0
  0
ENDTAB
  0
TABLE
  2
BLOCK_RECORD
  5
1
330
0
100
AcDbSymbolTable
 70
     4
  0
BLOCK_RECORD
  5
1F
330
1
100
AcDbSymbolTableRecord
100
AcDbBlockTableRecord
  2
*MODEL_SPACE
  0
BLOCK_RECORD
  5
1B
330
1
100
AcDbSymbolTableRecord
100
AcDbBlockTableRecord
  2
*PAPER_SPACE
  0
BLOCK_RECORD
  5
74
330
1
100
AcDbSymbolTableRecord
100
AcDbBlockTableRecord
  2
D0111_P_DWG
  0
BLOCK_RECORD
  5
77
330
1
100
AcDbSymbolTableRecord
100
AcDbBlockTableRecord
  2
GRUPO_2
  0
BLOCK_RECORD
  5
7A
330
1
100
AcDbSymbolTableRecord
100
AcDbBlockTableRecord
  2
GRUPO_1
  0
BLOCK_RECORD
  5
7D
330
1
100
AcDbSymbolTableRecord
100
AcDbBlockTableRecord
  2
GRUPO_3
  0
ENDTAB
  0
ENDSEC
  0
SECTION
  2
BLOCKS
  0
BLOCK
  5
20
330
1F
100
AcDbEntity
  8
0
100
AcDbBlockBegin
  2
*MODEL_SPACE
 70
     0
 10
0.0
 20
0.0
 30
0.0
  3
*MODEL_SPACE
  1

  0
ENDBLK
  5
21
330
1F
100
AcDbEntity
  8
0
100
AcDbBlockEnd
  0
BLOCK
  5
1C
330
1B
100
AcDbEntity
 67
     1
  8
0
100
AcDbBlockBegin
  2
*PAPER_SPACE
 70
     0
 10
0.0
 20
0.0
 30
0.0
  3
*PAPER_SPACE
  1

  0
ENDBLK
  5
1D
330
1B
100
AcDbEntity
 67
     1
  8
0
100
AcDbBlockEnd
  0
BLOCK
  5
75
330
74
100
AcDbEntity
  8
0
100
AcDbBlockBegin
  2
D0111_P_DWG
 70
     0
 10
0.0
 20
0.0
 30
0.0
  3
D0111_P_DWG
  1

  0
LINE
  5
81
330
74
100
AcDbEntity
  8
P_LISTONES
 62
     5
100
AcDbLine
 10
8.19999999999994
 20
20.10000000000005
 30
0.0
 11
0.0
 21
20.10000000000005
 31
0.0
  0
LINE
  5
82
330
74
100
AcDbEntity
  8
P_LISTONES
 62
     5
100
AcDbLine
 10
0.0
 20
20.10000000000005
 30
0.0
 11
0.0
 21
0.0
 31
0.0
  0
LINE
  5
83
330
74
100
AcDbEntity
  8
P_LISTONES
 62
     5
100
AcDbLine
 10
0.0
 20
0.0
 30
0.0
 11
8.19999999999994
 21
0.0
 31
0.0
  0
LINE
  5
84
330
74
100
AcDbEntity
  8
P_LISTONES
 62
     5
100
AcDbLine
 10
8.19999999999994
 20
0.0
 30
0.0
 11
8.19999999999994
 21
20.10000000000005
 31
0.0
  0
LINE
  5
85
330
74
100
AcDbEntity
  8
P_LISTONES
 62
     5
100
AcDbLine
 10
6.399999999999989
 20
17.99999999999995
 30
0.0
 11
1.799999999999952
 21
17.99999999999995
 31
0.0
  0
LINE
  5
86
330
74
100
AcDbEntity
  8
P_LISTONES
 62
     5
100
AcDbLine
 10
1.799999999999952
 20
17.99999999999995
 30
0.0
 11
1.786919374153898
 21
17.99957178464772
 31
0.0
  0
LINE
  5
87
330
74
100
AcDbEntity
  8
P_LISTONES
 62
     5
100
AcDbLine
 10
1.786919374153898
 20
17.99957178464772
 30
0.0
 11
1.773894761555947
 21
17.99828897227476
 31
0.0
  0
LINE
  5
88
330
74
100
AcDbEntity
  8
P_LISTONES
 62
     5
100
AcDbLine
 10
1.773894761555947
 20
17.99828897227476
 30
0.0
 11
1.76098193559675
 21
17.99615705608064
 31
0.0
  0
LINE
  5
89
330
74
100
AcDbEntity
  8
P_LISTONES
 62
     5
100
AcDbLine
 10
1.76098193559675
 20
17.99615705608064
 30
0.0
 11
1.748236190979481
 21
17.99318516525782
 31
0.0
  0
LINE
  5
8A
330
74
100
AcDbEntity
  8
P_LISTONES
 62
     5
100
AcDbLine
 10
1.748236190979481
 20
17.99318516525782
 30
0.0
 11
1.735712106939313
 21
17.98938602589905
 31
0.0
  0
LINE
  5
8B
330
74
100
AcDbEntity
  8
P_LISTONES
 62
     5
100
AcDbLine
 10
1.735712106939313
 20
17.98938602589905
 30
0.0
 11
1.72346331352691
 21
17.98477590650225
 31
0.0
  0
LINE
  5
8C
330
74
100
AcDbEntity
  8
P_LISTONES
 62
     5
100
AcDbLine
 10
1.72346331352691
 20
17.98477590650225
 30
0.0
 11
1.711542261956127
 21
17.9793745483065
 31
0.0
  0
LINE
  5
8D
330
74
100
AcDbEntity
  8
P_LISTONES
 62
     5
100
AcDbLine
 10
1.711542261956127
 20
17.9793745483065
 30
0.0
 11
1.699999999999974
 21
17.97320508075694
 31
0.0
  0
LINE
  5
8E
330
74
100
AcDbEntity
  8
P_LISTONES
 62
     5
100
AcDbLine
 10
1.699999999999974
 20
17.97320508075694
 30
0.0
 11
1.688885953396054
 21
17.96629392246044
 31
0.0
  0
LINE
  5
8F
330
74
100
AcDbEntity
  8
P_LISTONES
 62
     5
100
AcDbLine
 10
1.688885953396054
 20
17.96629392246044
 30
0.0
 11
1.678247714198229
 21
17.95867066805824
 31
0.0
  0
LINE
  5
90
330
74
100
AcDbEntity
  8
P_LISTONES
 62
     5
100
AcDbLine
 10
1.678247714198229
 20
17.95867066805824
 30
0.0
 11
1.66813083697995
 21
17.95036796149578
 31
0.0
  0
LINE
  5
91
330
74
100
AcDbEntity
  8
P_LISTONES
 62
     5
100
AcDbLine
 10
1.66813083697995
 20
17.95036796149578
 30
0.0
 11
1.658578643762669
 21
17.94142135623735
 31
0.0
  0
LINE
  5
92
330
74
100
AcDbEntity
  8
P_LISTONES
 62
     5
100
AcDbLine
 10
1.658578643762669
 20
17.94142135623735
 30
0.0
 11
1.64963203850417
 21
17.93186916302007
 31
0.0
  0
LINE
  5
93
330
74
100
AcDbEntity
  8
P_LISTONES
 62
     5
100
AcDbLine
 10
1.64963203850417
 20
17.93186916302007
 30
0.0
 11
1.641329331941706
 21
17.92175228580179
 31
0.0
  0
LINE
  5
94
330
74
100
AcDbEntity
  8
P_LISTONES
 62
     5
100
AcDbLine
 10
1.641329331941706
 20
17.92175228580179
 30
0.0
 11
1.633706077539434
 21
17.91111404660389
 31
0.0
  0
LINE
  5
95
330
74
100
AcDbEntity
  8
P_LISTONES
 62
     5
100
AcDbLine
 10
1.633706077539434
 20
17.91111404660389
 30
0.0
 11
1.626794919243074
 21
17.89999999999997
 31
0.0
  0
LINE
  5
96
330
74
100
AcDbEntity
  8
P_LISTONES
 62
     5
100
AcDbLine
 10
1.626794919243074
 20
17.89999999999997
 30
0.0
 11
1.62062545169338
 21
17.88845773804382
 31
0.0
  0
LINE
  5
97
330
74
100
AcDbEntity
  8
P_LISTONES
 62
     5
100
AcDbLine
 10
1.62062545169338
 20
17.88845773804382
 30
0.0
 11
1.6152240934977
 21
17.87653668647297
 31
0.0
  0
LINE
  5
98
330
74
100
AcDbEntity
  8
P_LISTONES
 62
     5
100
AcDbLine
 10
1.6152240934977
 20
17.87653668647297
 30
0.0
 11
1.610613974100896
 21
17.86428789306056
 31
0.0
  0
LINE
  5
99
330
74
100
AcDbEntity
  8
P_LISTONES
 62
     5
100
AcDbLine
 10
1.610613974100896
 20
17.86428789306056
 30
0.0
 11
1.606814834742126
 21
17.85176380902046
 31
0.0
  0
LINE
  5
9A
330
74
100
AcDbEntity
  8
P_LISTONES
 62
     5
100
AcDbLine
 10
1.606814834742126
 20
17.85176380902046
 30
0.0
 11
1.603842943919312
 21
17.83901806440327
 31
0.0
  0
LINE
  5
9B
330
74
100
AcDbEntity
  8
P_LISTONES
 62
     5
100
AcDbLine
 10
1.603842943919312
 20
17.83901806440327
 30
0.0
 11
1.601711027725187
 21
17.826105238444
 31
0.0
  0
LINE
  5
9C
330
74
100
AcDbEntity
  8
P_LISTONES
 62
     5
100
AcDbLine
 10
1.601711027725187
 20
17.826105238444
 30
0.0
 11
1.600428215352229
 21
17.81308062584605
 31
0.0
  0
LINE
  5
9D
330
74
100
AcDbEntity
  8
P_LISTONES
 62
     5
100
AcDbLine
 10
1.600428215352229
 20
17.81308062584605
 30
0.0
 11
1.599999999999925
 21
17.8
 31
0.0
  0
LINE
  5
9E
330
74
100
AcDbEntity
  8
P_LISTONES
 62
     5
100
AcDbLine
 10
1.599999999999925
 20
17.8
 30
0.0
 11
1.599999999999925
 21
10.39999999999995
 31
0.0
  0
LINE
  5
9F
330
74
100
AcDbEntity
  8
P_LISTONES
 62
     5
100
AcDbLine
 10
1.599999999999925
 20
10.39999999999995
 30
0.0
 11
1.600428215352229
 21
10.38691937415389
 31
0.0
  0
LINE
  5
A0
330
74
100
AcDbEntity
  8
P_LISTONES
 62
     5
100
AcDbLine
 10
1.600428215352229
 20
10.38691937415389
 30
0.0
 11
1.601711027725187
 21
10.37389476155594
 31
0.0
  0
LINE
  5
A1
330
74
100
AcDbEntity
  8
P_LISTONES
 62
     5
100
AcDbLine
 10
1.601711027725187
 20
10.37389476155594
 30
0.0
 11
1.603842943919312
 21
10.36098193559667
 31
0.0
  0
LINE
  5
A2
330
74
100
AcDbEntity
  8
P_LISTONES
 62
     5
100
AcDbLine
 10
1.603842943919312
 20
10.36098193559667
 30
0.0
 11
1.606814834742126
 21
10.34823619097947
 31
0.0
  0
LINE
  5
A3
330
74
100
AcDbEntity
  8
P_LISTONES
 62
     5
100
AcDbLine
 10
1.606814834742126
 20
10.34823619097947
 30
0.0
 11
1.610613974100896
 21
10.33571210693938
 31
0.0
  0
LINE
  5
A4
330
74
100
AcDbEntity
  8
P_LISTONES
 62
     5
100
AcDbLine
 10
1.610613974100896
 20
10.33571210693938
 30
0.0
 11
1.6152240934977
 21
10.32346331352698
 31
0.0
  0
LINE
  5
A5
330
74
100
AcDbEntity
  8
P_LISTONES
 62
     5
100
AcDbLine
 10
1.6152240934977
 20
10.32346331352698
 30
0.0
 11
1.62062545169338
 21
10.31154226195612
 31
0.0
  0
LINE
  5
A6
330
74
100
AcDbEntity
  8
P_LISTONES
 62
     5
100
AcDbLine
 10
1.62062545169338
 20
10.31154226195612
 30
0.0
 11
1.626794919243074
 21
10.29999999999997
 31
0.0
  0
LINE
  5
A7
330
74
100
AcDbEntity
  8
P_LISTONES
 62
     5
100
AcDbLine
 10
1.626794919243074
 20
10.29999999999997
 30
0.0
 11
1.633706077539434
 21
10.28888595339605
 31
0.0
  0
LINE
  5
A8
330
74
100
AcDbEntity
  8
P_LISTONES
 62
     5
100
AcDbLine
 10
1.633706077539434
 20
10.28888595339605
 30
0.0
 11
1.641329331941706
 21
10.27824771419815
 31
0.0
  0
LINE
  5
A9
330
74
100
AcDbEntity
  8
P_LISTONES
 62
     5
100
AcDbLine
 10
1.641329331941706
 20
10.27824771419815
 30
0.0
 11
1.64963203850417
 21
10.26813083697987
 31
0.0
  0
LINE
  5
AA
330
74
100
AcDbEntity
  8
P_LISTONES
 62
     5
100
AcDbLine
 10
1.64963203850417
 20
10.26813083697987
 30
0.0
 11
1.658578643762669
 21
10.25857864376259
 31
0.0
  0
LINE
  5
AB
330
74
100
AcDbEntity
  8
P_LISTONES
 62
     5
100
AcDbLine
 10
1.658578643762669
 20
10.25857864376259
 30
0.0
 11
1.66813083697995
 21
10.24963203850416
 31
0.0
  0
LINE
  5
AC
330
74
100
AcDbEntity
  8
P_LISTONES
 62
     5
100
AcDbLine
 10
1.66813083697995
 20
10.24963203850416
 30
0.0
 11
1.678247714198229
 21
10.2413293319417
 31
0.0
  0
LINE
  5
AD
330
74
100
AcDbEntity
  8
P_LISTONES
 62
     5
100
AcDbLine
 10
1.678247714198229
 20
10.2413293319417
 30
0.0
 11
1.688885953396054
 21
10.2337060775395
 31
0.0
  0
LINE
  5
AE
330
74
100
AcDbEntity
  8
P_LISTONES
 62
     5
100
AcDbLine
 10
1.688885953396054
 20
10.2337060775395
 30
0.0
 11
1.699999999999974
 21
10.226794919243
 31
0.0
  0
LINE
  5
AF
330
74
100
AcDbEntity
  8
P_LISTONES
 62
     5
100
AcDbLine
 10
1.699999999999974
 20
10.226794919243
 30
0.0
 11
1.711542261956127
 21
10.22062545169345
 31
0.0
  0
LINE
  5
B0
330
74
100
AcDbEntity
  8
P_LISTONES
 62
     5
100
AcDbLine
 10
1.711542261956127
 20
10.22062545169345
 30
0.0
 11
1.72346331352691
 21
10.21522409349769
 31
0.0
  0
LINE
  5
B1
330
74
100
AcDbEntity
  8
P_LISTONES
 62
     5
100
AcDbLine
 10
1.72346331352691
 20
10.21522409349769
 30
0.0
 11
1.735712106939313
 21
10.21061397410089
 31
0.0
  0
LINE
  5
B2
330
74
100
AcDbEntity
  8
P_LISTONES
 62
     5
100
AcDbLine
 10
1.735712106939313
 20
10.21061397410089
 30
0.0
 11
1.748236190979481
 21
10.20681483474212
 31
0.0
  0
LINE
  5
B3
330
74
100
AcDbEntity
  8
P_LISTONES
 62
     5
100
AcDbLine
 10
1.748236190979481
 20
10.20681483474212
 30
0.0
 11
1.76098193559675
 21
10.20384294391931
 31
0.0
  0
LINE
  5
B4
330
74
100
AcDbEntity
  8
P_LISTONES
 62
     5
100
AcDbLine
 10
1.76098193559675
 20
10.20384294391931
 30
0.0
 11
1.773894761555947
 21
10.20171102772518
 31
0.0
  0
LINE
  5
B5
330
74
100
AcDbEntity
  8
P_LISTONES
 62
     5
100
AcDbLine
 10
1.773894761555947
 20
10.20171102772518
 30
0.0
 11
1.786919374153898
 21
10.20042821535222
 31
0.0
  0
LINE
  5
B6
330
74
100
AcDbEntity
  8
P_LISTONES
 62
     5
100
AcDbLine
 10
1.786919374153898
 20
10.20042821535222
 30
0.0
 11
1.799999999999952
 21
10.19999999999999
 31
0.0
  0
LINE
  5
B7
330
74
100
AcDbEntity
  8
P_LISTONES
 62
     5
100
AcDbLine
 10
1.799999999999952
 20
10.19999999999999
 30
0.0
 11
6.399999999999989
 21
10.19999999999999
 31
0.0
  0
LINE
  5
B8
330
74
100
AcDbEntity
  8
P_LISTONES
 62
     5
100
AcDbLine
 10
6.399999999999989
 20
10.19999999999999
 30
0.0
 11
6.413080625846042
 21
10.20042821535222
 31
0.0
  0
LINE
  5
B9
330
74
100
AcDbEntity
  8
P_LISTONES
 62
     5
100
AcDbLine
 10
6.413080625846042
 20
10.20042821535222
 30
0.0
 11
6.426105238443994
 21
10.20171102772518
 31
0.0
  0
LINE
  5
BA
330
74
100
AcDbEntity
  8
P_LISTONES
 62
     5
100
AcDbLine
 10
6.426105238443994
 20
10.20171102772518
 30
0.0
 11
6.43901806440319
 21
10.20384294391931
 31
0.0
  0
LINE
  5
BB
330
74
100
AcDbEntity
  8
P_LISTONES
 62
     5
100
AcDbLine
 10
6.43901806440319
 20
10.20384294391931
 30
0.0
 11
6.451763809020459
 21
10.20681483474212
 31
0.0
  0
LINE
  5
BC
330
74
100
AcDbEntity
  8
P_LISTONES
 62
     5
100
AcDbLine
 10
6.451763809020459
 20
10.20681483474212
 30
0.0
 11
6.464287893060627
 21
10.21061397410089
 31
0.0
  0
LINE
  5
BD
330
74
100
AcDbEntity
  8
P_LISTONES
 62
     5
100
AcDbLine
 10
6.464287893060627
 20
10.21061397410089
 30
0.0
 11
6.476536686473031
 21
10.21522409349769
 31
0.0
  0
LINE
  5
BE
330
74
100
AcDbEntity
  8
P_LISTONES
 62
     5
100
AcDbLine
 10
6.476536686473031
 20
10.21522409349769
 30
0.0
 11
6.488457738043813
 21
10.22062545169345
 31
0.0
  0
LINE
  5
BF
330
74
100
AcDbEntity
  8
P_LISTONES
 62
     5
100
AcDbLine
 10
6.488457738043813
 20
10.22062545169345
 30
0.0
 11
6.499999999999966
 21
10.226794919243
 31
0.0
  0
LINE
  5
C0
330
74
100
AcDbEntity
  8
P_LISTONES
 62
     5
100
AcDbLine
 10
6.499999999999966
 20
10.226794919243
 30
0.0
 11
6.511114046603886
 21
10.2337060775395
 31
0.0
  0
LINE
  5
C1
330
74
100
AcDbEntity
  8
P_LISTONES
 62
     5
100
AcDbLine
 10
6.511114046603886
 20
10.2337060775395
 30
0.0
 11
6.521752285801711
 21
10.2413293319417
 31
0.0
  0
LINE
  5
C2
330
74
100
AcDbEntity
  8
P_LISTONES
 62
     5
100
AcDbLine
 10
6.521752285801711
 20
10.2413293319417
 30
0.0
 11
6.53186916301999
 21
10.24963203850416
 31
0.0
  0
LINE
  5
C3
330
74
100
AcDbEntity
  8
P_LISTONES
 62
     5
100
AcDbLine
 10
6.53186916301999
 20
10.24963203850416
 30
0.0
 11
6.541421356237271
 21
10.25857864376259
 31
0.0
  0
LINE
  5
C4
330
74
100
AcDbEntity
  8
P_LISTONES
 62
     5
100
AcDbLine
 10
6.541421356237271
 20
10.25857864376259
 30
0.0
 11
6.550367961495771
 21
10.26813083697987
 31
0.0
  0
LINE
  5
C5
330
74
100
AcDbEntity
  8
P_LISTONES
 62
     5
100
AcDbLine
 10
6.550367961495771
 20
10.26813083697987
 30
0.0
 11
6.558670668058235
 21
10.27824771419815
 31
0.0
  0
LINE
  5
C6
330
74
100
AcDbEntity
  8
P_LISTONES
 62
     5
100
AcDbLine
 10
6.558670668058235
 20
10.27824771419815
 30
0.0
 11
6.566293922460506
 21
10.28888595339605
 31
0.0
  0
LINE
  5
C7
330
74
100
AcDbEntity
  8
P_LISTONES
 62
     5
100
AcDbLine
 10
6.566293922460506
 20
10.28888595339605
 30
0.0
 11
6.573205080756867
 21
10.29999999999997
 31
0.0
  0
LINE
  5
C8
330
74
100
AcDbEntity
  8
P_LISTONES
 62
     5
100
AcDbLine
 10
6.573205080756867
 20
10.29999999999997
 30
0.0
 11
6.57937454830656
 21
10.31154226195612
 31
0.0
  0
LINE
  5
C9
330
74
100
AcDbEntity
  8
P_LISTONES
 62
     5
100
AcDbLine
 10
6.57937454830656
 20
10.31154226195612
 30
0.0
 11
6.58477590650224
 21
10.32346331352698
 31
0.0
  0
LINE
  5
CA
330
74
100
AcDbEntity
  8
P_LISTONES
 62
     5
100
AcDbLine
 10
6.58477590650224
 20
10.32346331352698
 30
0.0
 11
6.589386025899045
 21
10.33571210693938
 31
0.0
  0
LINE
  5
CB
330
74
100
AcDbEntity
  8
P_LISTONES
 62
     5
100
AcDbLine
 10
6.589386025899045
 20
10.33571210693938
 30
0.0
 11
6.593185165257815
 21
10.34823619097947
 31
0.0
  0
LINE
  5
CC
330
74
100
AcDbEntity
  8
P_LISTONES
 62
     5
100
AcDbLine
 10
6.593185165257815
 20
10.34823619097947
 30
0.0
 11
6.596157056080629
 21
10.36098193559667
 31
0.0
  0
LINE
  5
CD
330
74
100
AcDbEntity
  8
P_LISTONES
 62
     5
100
AcDbLine
 10
6.596157056080629
 20
10.36098193559667
 30
0.0
 11
6.598288972274753
 21
10.37389476155594
 31
0.0
  0
LINE
  5
CE
330
74
100
AcDbEntity
  8
P_LISTONES
 62
     5
100
AcDbLine
 10
6.598288972274753
 20
10.37389476155594
 30
0.0
 11
6.599571784647711
 21
10.38691937415389
 31
0.0
  0
LINE
  5
CF
330
74
100
AcDbEntity
  8
P_LISTONES
 62
     5
100
AcDbLine
 10
6.599571784647711
 20
10.38691937415389
 30
0.0
 11
6.600000000000016
 21
10.39999999999995
 31
0.0
  0
LINE
  5
D0
330
74
100
AcDbEntity
  8
P_LISTONES
 62
     5
100
AcDbLine
 10
6.600000000000016
 20
10.39999999999995
 30
0.0
 11
6.600000000000016
 21
17.8
 31
0.0
  0
LINE
  5
D1
330
74
100
AcDbEntity
  8
P_LISTONES
 62
     5
100
AcDbLine
 10
6.600000000000016
 20
17.8
 30
0.0
 11
6.599571784647711
 21
17.81308062584605
 31
0.0
  0
LINE
  5
D2
330
74
100
AcDbEntity
  8
P_LISTONES
 62
     5
100
AcDbLine
 10
6.599571784647711
 20
17.81308062584605
 30
0.0
 11
6.598288972274753
 21
17.826105238444
 31
0.0
  0
LINE
  5
D3
330
74
100
AcDbEntity
  8
P_LISTONES
 62
     5
100
AcDbLine
 10
6.598288972274753
 20
17.826105238444
 30
0.0
 11
6.596157056080629
 21
17.83901806440327
 31
0.0
  0
LINE
  5
D4
330
74
100
AcDbEntity
  8
P_LISTONES
 62
     5
100
AcDbLine
 10
6.596157056080629
 20
17.83901806440327
 30
0.0
 11
6.593185165257815
 21
17.85176380902046
 31
0.0
  0
LINE
  5
D5
330
74
100
AcDbEntity
  8
P_LISTONES
 62
     5
100
AcDbLine
 10
6.593185165257815
 20
17.85176380902046
 30
0.0
 11
6.589386025899045
 21
17.86428789306056
 31
0.0
  0
LINE
  5
D6
330
74
100
AcDbEntity
  8
P_LISTONES
 62
     5
100
AcDbLine
 10
6.589386025899045
 20
17.86428789306056
 30
0.0
 11
6.58477590650224
 21
17.87653668647297
 31
0.0
  0
LINE
  5
D7
330
74
100
AcDbEntity
  8
P_LISTONES
 62
     5
100
AcDbLine
 10
6.58477590650224
 20
17.87653668647297
 30
0.0
 11
6.57937454830656
 21
17.88845773804382
 31
0.0
  0
LINE
  5
D8
330
74
100
AcDbEntity
  8
P_LISTONES
 62
     5
100
AcDbLine
 10
6.57937454830656
 20
17.88845773804382
 30
0.0
 11
6.573205080756867
 21
17.89999999999997
 31
0.0
  0
LINE
  5
D9
330
74
100
AcDbEntity
  8
P_LISTONES
 62
     5
100
AcDbLine
 10
6.573205080756867
 20
17.89999999999997
 30
0.0
 11
6.566293922460506
 21
17.91111404660389
 31
0.0
  0
LINE
  5
DA
330
74
100
AcDbEntity
  8
P_LISTONES
 62
     5
100
AcDbLine
 10
6.566293922460506
 20
17.91111404660389
 30
0.0
 11
6.558670668058235
 21
17.92175228580179
 31
0.0
  0
LINE
  5
DB
330
74
100
AcDbEntity
  8
P_LISTONES
 62
     5
100
AcDbLine
 10
6.558670668058235
 20
17.92175228580179
 30
0.0
 11
6.550367961495771
 21
17.93186916302007
 31
0.0
  0
LINE
  5
DC
330
74
100
AcDbEntity
  8
P_LISTONES
 62
     5
100
AcDbLine
 10
6.550367961495771
 20
17.93186916302007
 30
0.0
 11
6.541421356237271
 21
17.94142135623735
 31
0.0
  0
LINE
  5
DD
330
74
100
AcDbEntity
  8
P_LISTONES
 62
     5
100
AcDbLine
 10
6.541421356237271
 20
17.94142135623735
 30
0.0
 11
6.53186916301999
 21
17.95036796149578
 31
0.0
  0
LINE
  5
DE
330
74
100
AcDbEntity
  8
P_LISTONES
 62
     5
100
AcDbLine
 10
6.53186916301999
 20
17.95036796149578
 30
0.0
 11
6.521752285801711
 21
17.95867066805824
 31
0.0
  0
LINE
  5
DF
330
74
100
AcDbEntity
  8
P_LISTONES
 62
     5
100
AcDbLine
 10
6.521752285801711
 20
17.95867066805824
 30
0.0
 11
6.511114046603886
 21
17.96629392246044
 31
0.0
  0
LINE
  5
E0
330
74
100
AcDbEntity
  8
P_LISTONES
 62
     5
100
AcDbLine
 10
6.511114046603886
 20
17.96629392246044
 30
0.0
 11
6.499999999999966
 21
17.97320508075694
 31
0.0
  0
LINE
  5
E1
330
74
100
AcDbEntity
  8
P_LISTONES
 62
     5
100
AcDbLine
 10
6.499999999999966
 20
17.97320508075694
 30
0.0
 11
6.488457738043813
 21
17.9793745483065
 31
0.0
  0
LINE
  5
E2
330
74
100
AcDbEntity
  8
P_LISTONES
 62
     5
100
AcDbLine
 10
6.488457738043813
 20
17.9793745483065
 30
0.0
 11
6.476536686473031
 21
17.98477590650225
 31
0.0
  0
LINE
  5
E3
330
74
100
AcDbEntity
  8
P_LISTONES
 62
     5
100
AcDbLine
 10
6.476536686473031
 20
17.98477590650225
 30
0.0
 11
6.464287893060627
 21
17.98938602589905
 31
0.0
  0
LINE
  5
E4
330
74
100
AcDbEntity
  8
P_LISTONES
 62
     5
100
AcDbLine
 10
6.464287893060627
 20
17.98938602589905
 30
0.0
 11
6.451763809020459
 21
17.99318516525782
 31
0.0
  0
LINE
  5
E5
330
74
100
AcDbEntity
  8
P_LISTONES
 62
     5
100
AcDbLine
 10
6.451763809020459
 20
17.99318516525782
 30
0.0
 11
6.43901806440319
 21
17.99615705608064
 31
0.0
  0
LINE
  5
E6
330
74
100
AcDbEntity
  8
P_LISTONES
 62
     5
100
AcDbLine
 10
6.43901806440319
 20
17.99615705608064
 30
0.0
 11
6.426105238443994
 21
17.99828897227476
 31
0.0
  0
LINE
  5
E7
330
74
100
AcDbEntity
  8
P_LISTONES
 62
     5
100
AcDbLine
 10
6.426105238443994
 20
17.99828897227476
 30
0.0
 11
6.413080625846042
 21
17.99957178464772
 31
0.0
  0
LINE
  5
E8
330
74
100
AcDbEntity
  8
P_LISTONES
 62
     5
100
AcDbLine
 10
6.413080625846042
 20
17.99957178464772
 30
0.0
 11
6.399999999999989
 21
17.99999999999995
 31
0.0
  0
LINE
  5
E9
330
74
100
AcDbEntity
  8
P_LISTONES
 62
     5
100
AcDbLine
 10
1.900000000000001
 20
17.8
 30
0.0
 11
1.893459687076974
 21
17.79978589232381
 31
0.0
  0
LINE
  5
EA
330
74
100
AcDbEntity
  8
P_LISTONES
 62
     5
100
AcDbLine
 10
1.893459687076974
 20
17.79978589232381
 30
0.0
 11
1.886947380777999
 21
17.79914448613733
 31
0.0
  0
LINE
  5
EB
330
74
100
AcDbEntity
  8
P_LISTONES
 62
     5
100
AcDbLine
 10
1.886947380777999
 20
17.79914448613733
 30
0.0
 11
1.880490967798364
 21
17.79807852804034
 31
0.0
  0
LINE
  5
EC
330
74
100
AcDbEntity
  8
P_LISTONES
 62
     5
100
AcDbLine
 10
1.880490967798364
 20
17.79807852804034
 30
0.0
 11
1.874118095489766
 21
17.79659258262893
 31
0.0
  0
LINE
  5
ED
330
74
100
AcDbEntity
  8
P_LISTONES
 62
     5
100
AcDbLine
 10
1.874118095489766
 20
17.79659258262893
 30
0.0
 11
1.867856053469718
 21
17.79469301294947
 31
0.0
  0
LINE
  5
EE
330
74
100
AcDbEntity
  8
P_LISTONES
 62
     5
100
AcDbLine
 10
1.867856053469718
 20
17.79469301294947
 30
0.0
 11
1.861731656763516
 21
17.79238795325121
 31
0.0
  0
LINE
  5
EF
330
74
100
AcDbEntity
  8
P_LISTONES
 62
     5
100
AcDbLine
 10
1.861731656763516
 20
17.79238795325121
 30
0.0
 11
1.855771130978089
 21
17.78968727415334
 31
0.0
  0
LINE
  5
F0
330
74
100
AcDbEntity
  8
P_LISTONES
 62
     5
100
AcDbLine
 10
1.855771130978089
 20
17.78968727415334
 30
0.0
 11
1.850000000000013
 21
17.78660254037849
 31
0.0
  0
LINE
  5
F1
330
74
100
AcDbEntity
  8
P_LISTONES
 62
     5
100
AcDbLine
 10
1.850000000000013
 20
17.78660254037849
 30
0.0
 11
1.844442976698052
 21
17.78314696123024
 31
0.0
  0
LINE
  5
F2
330
74
100
AcDbEntity
  8
P_LISTONES
 62
     5
100
AcDbLine
 10
1.844442976698052
 20
17.78314696123024
 30
0.0
 11
1.839123857099104
 21
17.77933533402914
 31
0.0
  0
LINE
  5
F3
330
74
100
AcDbEntity
  8
P_LISTONES
 62
     5
100
AcDbLine
 10
1.839123857099104
 20
17.77933533402914
 30
0.0
 11
1.834065418489964
 21
17.77518398074798
 31
0.0
  0
LINE
  5
F4
330
74
100
AcDbEntity
  8
P_LISTONES
 62
     5
100
AcDbLine
 10
1.834065418489964
 20
17.77518398074798
 30
0.0
 11
1.829289321881324
 21
17.77071067811863
 31
0.0
  0
LINE
  5
F5
330
74
100
AcDbEntity
  8
P_LISTONES
 62
     5
100
AcDbLine
 10
1.829289321881324
 20
17.77071067811863
 30
0.0
 11
1.82481601925211
 21
17.76593458151006
 31
0.0
  0
LINE
  5
F6
330
74
100
AcDbEntity
  8
P_LISTONES
 62
     5
100
AcDbLine
 10
1.82481601925211
 20
17.76593458151006
 30
0.0
 11
1.820664665970878
 21
17.76087614290092
 31
0.0
  0
LINE
  5
F7
330
74
100
AcDbEntity
  8
P_LISTONES
 62
     5
100
AcDbLine
 10
1.820664665970878
 20
17.76087614290092
 30
0.0
 11
1.816853038769779
 21
17.75555702330197
 31
0.0
  0
LINE
  5
F8
330
74
100
AcDbEntity
  8
P_LISTONES
 62
     5
100
AcDbLine
 10
1.816853038769779
 20
17.75555702330197
 30
0.0
 11
1.813397459621526
 21
17.75000000000001
 31
0.0
  0
LINE
  5
F9
330
74
100
AcDbEntity
  8
P_LISTONES
 62
     5
100
AcDbLine
 10
1.813397459621526
 20
17.75000000000001
 30
0.0
 11
1.810312725846752
 21
17.74422886902186
 31
0.0
  0
LINE
  5
FA
330
74
100
AcDbEntity
  8
P_LISTONES
 62
     5
100
AcDbLine
 10
1.810312725846752
 20
17.74422886902186
 30
0.0
 11
1.807612046748875
 21
17.73826834323658
 31
0.0
  0
LINE
  5
FB
330
74
100
AcDbEntity
  8
P_LISTONES
 62
     5
100
AcDbLine
 10
1.807612046748875
 20
17.73826834323658
 30
0.0
 11
1.805306987050473
 21
17.7321439465303
 31
0.0
  0
LINE
  5
FC
330
74
100
AcDbEntity
  8
P_LISTONES
 62
     5
100
AcDbLine
 10
1.805306987050473
 20
17.7321439465303
 30
0.0
 11
1.803407417371088
 21
17.72588190451033
 31
0.0
  0
LINE
  5
FD
330
74
100
AcDbEntity
  8
P_LISTONES
 62
     5
100
AcDbLine
 10
1.803407417371088
 20
17.72588190451033
 30
0.0
 11
1.801921471959681
 21
17.71950903220166
 31
0.0
  0
LINE
  5
FE
330
74
100
AcDbEntity
  8
P_LISTONES
 62
     5
100
AcDbLine
 10
1.801921471959681
 20
17.71950903220166
 30
0.0
 11
1.800855513862619
 21
17.71305261922209
 31
0.0
  0
LINE
  5
FF
330
74
100
AcDbEntity
  8
P_LISTONES
 62
     5
100
AcDbLine
 10
1.800855513862619
 20
17.71305261922209
 30
0.0
 11
1.80021410767614
 21
17.70654031292298
 31
0.0
  0
LINE
  5
100
330
74
100
AcDbEntity
  8
P_LISTONES
 62
     5
100
AcDbLine
 10
1.80021410767614
 20
17.70654031292298
 30
0.0
 11
1.800000000000024
 21
17.70000000000002
 31
0.0
  0
LINE
  5
101
330
74
100
AcDbEntity
  8
P_LISTONES
 62
     5
100
AcDbLine
 10
1.800000000000024
 20
17.70000000000002
 30
0.0
 11
1.800000000000024
 21
10.50000000000007
 31
0.0
  0
LINE
  5
102
330
74
100
AcDbEntity
  8
P_LISTONES
 62
     5
100
AcDbLine
 10
1.800000000000024
 20
10.50000000000007
 30
0.0
 11
1.80021410767614
 21
10.49345968707711
 31
0.0
  0
LINE
  5
103
330
74
100
AcDbEntity
  8
P_LISTONES
 62
     5
100
AcDbLine
 10
1.80021410767614
 20
10.49345968707711
 30
0.0
 11
1.800855513862619
 21
10.48694738077799
 31
0.0
  0
LINE
  5
104
330
74
100
AcDbEntity
  8
P_LISTONES
 62
     5
100
AcDbLine
 10
1.800855513862619
 20
10.48694738077799
 30
0.0
 11
1.801921471959681
 21
10.48049096779843
 31
0.0
  0
LINE
  5
105
330
74
100
AcDbEntity
  8
P_LISTONES
 62
     5
100
AcDbLine
 10
1.801921471959681
 20
10.48049096779843
 30
0.0
 11
1.803407417371088
 21
10.47411809548976
 31
0.0
  0
LINE
  5
106
330
74
100
AcDbEntity
  8
P_LISTONES
 62
     5
100
AcDbLine
 10
1.803407417371088
 20
10.47411809548976
 30
0.0
 11
1.805306987050473
 21
10.46785605346978
 31
0.0
  0
LINE
  5
107
330
74
100
AcDbEntity
  8
P_LISTONES
 62
     5
100
AcDbLine
 10
1.805306987050473
 20
10.46785605346978
 30
0.0
 11
1.807612046748875
 21
10.46173165676351
 31
0.0
  0
LINE
  5
108
330
74
100
AcDbEntity
  8
P_LISTONES
 62
     5
100
AcDbLine
 10
1.807612046748875
 20
10.46173165676351
 30
0.0
 11
1.810312725846752
 21
10.45577113097823
 31
0.0
  0
LINE
  5
109
330
74
100
AcDbEntity
  8
P_LISTONES
 62
     5
100
AcDbLine
 10
1.810312725846752
 20
10.45577113097823
 30
0.0
 11
1.813397459621526
 21
10.45000000000008
 31
0.0
  0
LINE
  5
10A
330
74
100
AcDbEntity
  8
P_LISTONES
 62
     5
100
AcDbLine
 10
1.813397459621526
 20
10.45000000000008
 30
0.0
 11
1.816853038769779
 21
10.44444297669812
 31
0.0
  0
LINE
  5
10B
330
74
100
AcDbEntity
  8
P_LISTONES
 62
     5
100
AcDbLine
 10
1.816853038769779
 20
10.44444297669812
 30
0.0
 11
1.820664665970878
 21
10.43912385709917
 31
0.0
  0
LINE
  5
10C
330
74
100
AcDbEntity
  8
P_LISTONES
 62
     5
100
AcDbLine
 10
1.820664665970878
 20
10.43912385709917
 30
0.0
 11
1.82481601925211
 21
10.43406541849003
 31
0.0
  0
LINE
  5
10D
330
74
100
AcDbEntity
  8
P_LISTONES
 62
     5
100
AcDbLine
 10
1.82481601925211
 20
10.43406541849003
 30
0.0
 11
1.829289321881324
 21
10.42928932188146
 31
0.0
  0
LINE
  5
10E
330
74
100
AcDbEntity
  8
P_LISTONES
 62
     5
100
AcDbLine
 10
1.829289321881324
 20
10.42928932188146
 30
0.0
 11
1.834065418489964
 21
10.4248160192521
 31
0.0
  0
LINE
  5
10F
330
74
100
AcDbEntity
  8
P_LISTONES
 62
     5
100
AcDbLine
 10
1.834065418489964
 20
10.4248160192521
 30
0.0
 11
1.839123857099104
 21
10.42066466597094
 31
0.0
  0
LINE
  5
110
330
74
100
AcDbEntity
  8
P_LISTONES
 62
     5
100
AcDbLine
 10
1.839123857099104
 20
10.42066466597094
 30
0.0
 11
1.844442976698052
 21
10.41685303876984
 31
0.0
  0
LINE
  5
111
330
74
100
AcDbEntity
  8
P_LISTONES
 62
     5
100
AcDbLine
 10
1.844442976698052
 20
10.41685303876984
 30
0.0
 11
1.850000000000013
 21
10.41339745962159
 31
0.0
  0
LINE
  5
112
330
74
100
AcDbEntity
  8
P_LISTONES
 62
     5
100
AcDbLine
 10
1.850000000000013
 20
10.41339745962159
 30
0.0
 11
1.855771130978089
 21
10.41031272584675
 31
0.0
  0
LINE
  5
113
330
74
100
AcDbEntity
  8
P_LISTONES
 62
     5
100
AcDbLine
 10
1.855771130978089
 20
10.41031272584675
 30
0.0
 11
1.861731656763516
 21
10.40761204674887
 31
0.0
  0
LINE
  5
114
330
74
100
AcDbEntity
  8
P_LISTONES
 62
     5
100
AcDbLine
 10
1.861731656763516
 20
10.40761204674887
 30
0.0
 11
1.867856053469718
 21
10.40530698705061
 31
0.0
  0
LINE
  5
115
330
74
100
AcDbEntity
  8
P_LISTONES
 62
     5
100
AcDbLine
 10
1.867856053469718
 20
10.40530698705061
 30
0.0
 11
1.874118095489766
 21
10.40340741737115
 31
0.0
  0
LINE
  5
116
330
74
100
AcDbEntity
  8
P_LISTONES
 62
     5
100
AcDbLine
 10
1.874118095489766
 20
10.40340741737115
 30
0.0
 11
1.880490967798364
 21
10.40192147195975
 31
0.0
  0
LINE
  5
117
330
74
100
AcDbEntity
  8
P_LISTONES
 62
     5
100
AcDbLine
 10
1.880490967798364
 20
10.40192147195975
 30
0.0
 11
1.886947380777999
 21
10.40085551386276
 31
0.0
  0
LINE
  5
118
330
74
100
AcDbEntity
  8
P_LISTONES
 62
     5
100
AcDbLine
 10
1.886947380777999
 20
10.40085551386276
 30
0.0
 11
1.893459687076974
 21
10.40021410767628
 31
0.0
  0
LINE
  5
119
330
74
100
AcDbEntity
  8
P_LISTONES
 62
     5
100
AcDbLine
 10
1.893459687076974
 20
10.40021410767628
 30
0.0
 11
1.900000000000001
 21
10.40000000000009
 31
0.0
  0
LINE
  5
11A
330
74
100
AcDbEntity
  8
P_LISTONES
 62
     5
100
AcDbLine
 10
1.900000000000001
 20
10.40000000000009
 30
0.0
 11
6.300000000000011
 21
10.40000000000009
 31
0.0
  0
LINE
  5
11B
330
74
100
AcDbEntity
  8
P_LISTONES
 62
     5
100
AcDbLine
 10
6.300000000000011
 20
10.40000000000009
 30
0.0
 11
6.306540312923039
 21
10.40021410767628
 31
0.0
  0
LINE
  5
11C
330
74
100
AcDbEntity
  8
P_LISTONES
 62
     5
100
AcDbLine
 10
6.306540312923039
 20
10.40021410767628
 30
0.0
 11
6.313052619222014
 21
10.40085551386276
 31
0.0
  0
LINE
  5
11D
330
74
100
AcDbEntity
  8
P_LISTONES
 62
     5
100
AcDbLine
 10
6.313052619222014
 20
10.40085551386276
 30
0.0
 11
6.319509032201649
 21
10.40192147195975
 31
0.0
  0
LINE
  5
11E
330
74
100
AcDbEntity
  8
P_LISTONES
 62
     5
100
AcDbLine
 10
6.319509032201649
 20
10.40192147195975
 30
0.0
 11
6.325881904510247
 21
10.40340741737115
 31
0.0
  0
LINE
  5
11F
330
74
100
AcDbEntity
  8
P_LISTONES
 62
     5
100
AcDbLine
 10
6.325881904510247
 20
10.40340741737115
 30
0.0
 11
6.332143946530294
 21
10.40530698705061
 31
0.0
  0
LINE
  5
120
330
74
100
AcDbEntity
  8
P_LISTONES
 62
     5
100
AcDbLine
 10
6.332143946530294
 20
10.40530698705061
 30
0.0
 11
6.338268343236496
 21
10.40761204674887
 31
0.0
  0
LINE
  5
121
330
74
100
AcDbEntity
  8
P_LISTONES
 62
     5
100
AcDbLine
 10
6.338268343236496
 20
10.40761204674887
 30
0.0
 11
6.344228869021924
 21
10.41031272584675
 31
0.0
  0
LINE
  5
122
330
74
100
AcDbEntity
  8
P_LISTONES
 62
     5
100
AcDbLine
 10
6.344228869021924
 20
10.41031272584675
 30
0.0
 11
6.35
 21
10.41339745962159
 31
0.0
  0
LINE
  5
123
330
74
100
AcDbEntity
  8
P_LISTONES
 62
     5
100
AcDbLine
 10
6.35
 20
10.41339745962159
 30
0.0
 11
6.35555702330196
 21
10.41685303876984
 31
0.0
  0
LINE
  5
124
330
74
100
AcDbEntity
  8
P_LISTONES
 62
     5
100
AcDbLine
 10
6.35555702330196
 20
10.41685303876984
 30
0.0
 11
6.360876142900909
 21
10.42066466597094
 31
0.0
  0
LINE
  5
125
330
74
100
AcDbEntity
  8
P_LISTONES
 62
     5
100
AcDbLine
 10
6.360876142900909
 20
10.42066466597094
 30
0.0
 11
6.365934581510048
 21
10.4248160192521
 31
0.0
  0
LINE
  5
126
330
74
100
AcDbEntity
  8
P_LISTONES
 62
     5
100
AcDbLine
 10
6.365934581510048
 20
10.4248160192521
 30
0.0
 11
6.370710678118689
 21
10.42928932188146
 31
0.0
  0
LINE
  5
127
330
74
100
AcDbEntity
  8
P_LISTONES
 62
     5
100
AcDbLine
 10
6.370710678118689
 20
10.42928932188146
 30
0.0
 11
6.375183980747902
 21
10.43406541849003
 31
0.0
  0
LINE
  5
128
330
74
100
AcDbEntity
  8
P_LISTONES
 62
     5
100
AcDbLine
 10
6.375183980747902
 20
10.43406541849003
 30
0.0
 11
6.379335334029134
 21
10.43912385709917
 31
0.0
  0
LINE
  5
129
330
74
100
AcDbEntity
  8
P_LISTONES
 62
     5
100
AcDbLine
 10
6.379335334029134
 20
10.43912385709917
 30
0.0
 11
6.383146961230234
 21
10.44444297669812
 31
0.0
  0
LINE
  5
12A
330
74
100
AcDbEntity
  8
P_LISTONES
 62
     5
100
AcDbLine
 10
6.383146961230234
 20
10.44444297669812
 30
0.0
 11
6.386602540378487
 21
10.45000000000008
 31
0.0
  0
LINE
  5
12B
330
74
100
AcDbEntity
  8
P_LISTONES
 62
     5
100
AcDbLine
 10
6.386602540378487
 20
10.45000000000008
 30
0.0
 11
6.389687274153261
 21
10.45577113097823
 31
0.0
  0
LINE
  5
12C
330
74
100
AcDbEntity
  8
P_LISTONES
 62
     5
100
AcDbLine
 10
6.389687274153261
 20
10.45577113097823
 30
0.0
 11
6.392387953251137
 21
10.46173165676351
 31
0.0
  0
LINE
  5
12D
330
74
100
AcDbEntity
  8
P_LISTONES
 62
     5
100
AcDbLine
 10
6.392387953251137
 20
10.46173165676351
 30
0.0
 11
6.394693012949539
 21
10.46785605346978
 31
0.0
  0
LINE
  5
12E
330
74
100
AcDbEntity
  8
P_LISTONES
 62
     5
100
AcDbLine
 10
6.394693012949539
 20
10.46785605346978
 30
0.0
 11
6.396592582628925
 21
10.47411809548976
 31
0.0
  0
LINE
  5
12F
330
74
100
AcDbEntity
  8
P_LISTONES
 62
     5
100
AcDbLine
 10
6.396592582628925
 20
10.47411809548976
 30
0.0
 11
6.398078528040331
 21
10.48049096779843
 31
0.0
  0
LINE
  5
130
330
74
100
AcDbEntity
  8
P_LISTONES
 62
     5
100
AcDbLine
 10
6.398078528040331
 20
10.48049096779843
 30
0.0
 11
6.399144486137394
 21
10.48694738077799
 31
0.0
  0
LINE
  5
131
330
74
100
AcDbEntity
  8
P_LISTONES
 62
     5
100
AcDbLine
 10
6.399144486137394
 20
10.48694738077799
 30
0.0
 11
6.399785892323873
 21
10.49345968707711
 31
0.0
  0
LINE
  5
132
330
74
100
AcDbEntity
  8
P_LISTONES
 62
     5
100
AcDbLine
 10
6.399785892323873
 20
10.49345968707711
 30
0.0
 11
6.399999999999989
 21
10.50000000000007
 31
0.0
  0
LINE
  5
133
330
74
100
AcDbEntity
  8
P_LISTONES
 62
     5
100
AcDbLine
 10
6.399999999999989
 20
10.50000000000007
 30
0.0
 11
6.399999999999989
 21
17.70000000000002
 31
0.0
  0
LINE
  5
134
330
74
100
AcDbEntity
  8
P_LISTONES
 62
     5
100
AcDbLine
 10
6.399999999999989
 20
17.70000000000002
 30
0.0
 11
6.399785892323873
 21
17.70654031292298
 31
0.0
  0
LINE
  5
135
330
74
100
AcDbEntity
  8
P_LISTONES
 62
     5
100
AcDbLine
 10
6.399785892323873
 20
17.70654031292298
 30
0.0
 11
6.399144486137394
 21
17.71305261922209
 31
0.0
  0
LINE
  5
136
330
74
100
AcDbEntity
  8
P_LISTONES
 62
     5
100
AcDbLine
 10
6.399144486137394
 20
17.71305261922209
 30
0.0
 11
6.398078528040331
 21
17.71950903220166
 31
0.0
  0
LINE
  5
137
330
74
100
AcDbEntity
  8
P_LISTONES
 62
     5
100
AcDbLine
 10
6.398078528040331
 20
17.71950903220166
 30
0.0
 11
6.396592582628925
 21
17.72588190451033
 31
0.0
  0
LINE
  5
138
330
74
100
AcDbEntity
  8
P_LISTONES
 62
     5
100
AcDbLine
 10
6.396592582628925
 20
17.72588190451033
 30
0.0
 11
6.394693012949539
 21
17.7321439465303
 31
0.0
  0
LINE
  5
139
330
74
100
AcDbEntity
  8
P_LISTONES
 62
     5
100
AcDbLine
 10
6.394693012949539
 20
17.7321439465303
 30
0.0
 11
6.392387953251137
 21
17.73826834323658
 31
0.0
  0
LINE
  5
13A
330
74
100
AcDbEntity
  8
P_LISTONES
 62
     5
100
AcDbLine
 10
6.392387953251137
 20
17.73826834323658
 30
0.0
 11
6.389687274153261
 21
17.74422886902186
 31
0.0
  0
LINE
  5
13B
330
74
100
AcDbEntity
  8
P_LISTONES
 62
     5
100
AcDbLine
 10
6.389687274153261
 20
17.74422886902186
 30
0.0
 11
6.386602540378487
 21
17.75000000000001
 31
0.0
  0
LINE
  5
13C
330
74
100
AcDbEntity
  8
P_LISTONES
 62
     5
100
AcDbLine
 10
6.386602540378487
 20
17.75000000000001
 30
0.0
 11
6.383146961230234
 21
17.75555702330197
 31
0.0
  0
LINE
  5
13D
330
74
100
AcDbEntity
  8
P_LISTONES
 62
     5
100
AcDbLine
 10
6.383146961230234
 20
17.75555702330197
 30
0.0
 11
6.379335334029134
 21
17.76087614290092
 31
0.0
  0
LINE
  5
13E
330
74
100
AcDbEntity
  8
P_LISTONES
 62
     5
100
AcDbLine
 10
6.379335334029134
 20
17.76087614290092
 30
0.0
 11
6.375183980747902
 21
17.76593458151006
 31
0.0
  0
LINE
  5
13F
330
74
100
AcDbEntity
  8
P_LISTONES
 62
     5
100
AcDbLine
 10
6.375183980747902
 20
17.76593458151006
 30
0.0
 11
6.370710678118689
 21
17.77071067811863
 31
0.0
  0
LINE
  5
140
330
74
100
AcDbEntity
  8
P_LISTONES
 62
     5
100
AcDbLine
 10
6.370710678118689
 20
17.77071067811863
 30
0.0
 11
6.365934581510048
 21
17.77518398074798
 31
0.0
  0
LINE
  5
141
330
74
100
AcDbEntity
  8
P_LISTONES
 62
     5
100
AcDbLine
 10
6.365934581510048
 20
17.77518398074798
 30
0.0
 11
6.360876142900909
 21
17.77933533402914
 31
0.0
  0
LINE
  5
142
330
74
100
AcDbEntity
  8
P_LISTONES
 62
     5
100
AcDbLine
 10
6.360876142900909
 20
17.77933533402914
 30
0.0
 11
6.35555702330196
 21
17.78314696123024
 31
0.0
  0
LINE
  5
143
330
74
100
AcDbEntity
  8
P_LISTONES
 62
     5
100
AcDbLine
 10
6.35555702330196
 20
17.78314696123024
 30
0.0
 11
6.35
 21
17.78660254037849
 31
0.0
  0
LINE
  5
144
330
74
100
AcDbEntity
  8
P_LISTONES
 62
     5
100
AcDbLine
 10
6.35
 20
17.78660254037849
 30
0.0
 11
6.344228869021924
 21
17.78968727415334
 31
0.0
  0
LINE
  5
145
330
74
100
AcDbEntity
  8
P_LISTONES
 62
     5
100
AcDbLine
 10
6.344228869021924
 20
17.78968727415334
 30
0.0
 11
6.338268343236496
 21
17.79238795325121
 31
0.0
  0
LINE
  5
146
330
74
100
AcDbEntity
  8
P_LISTONES
 62
     5
100
AcDbLine
 10
6.338268343236496
 20
17.79238795325121
 30
0.0
 11
6.332143946530294
 21
17.79469301294947
 31
0.0
  0
LINE
  5
147
330
74
100
AcDbEntity
  8
P_LISTONES
 62
     5
100
AcDbLine
 10
6.332143946530294
 20
17.79469301294947
 30
0.0
 11
6.325881904510247
 21
17.79659258262893
 31
0.0
  0
LINE
  5
148
330
74
100
AcDbEntity
  8
P_LISTONES
 62
     5
100
AcDbLine
 10
6.325881904510247
 20
17.79659258262893
 30
0.0
 11
6.319509032201649
 21
17.79807852804034
 31
0.0
  0
LINE
  5
149
330
74
100
AcDbEntity
  8
P_LISTONES
 62
     5
100
AcDbLine
 10
6.319509032201649
 20
17.79807852804034
 30
0.0
 11
6.313052619222014
 21
17.79914448613733
 31
0.0
  0
LINE
  5
14A
330
74
100
AcDbEntity
  8
P_LISTONES
 62
     5
100
AcDbLine
 10
6.313052619222014
 20
17.79914448613733
 30
0.0
 11
6.306540312923039
 21
17.79978589232381
 31
0.0
  0
LINE
  5
14B
330
74
100
AcDbEntity
  8
P_LISTONES
 62
     5
100
AcDbLine
 10
6.306540312923039
 20
17.79978589232381
 30
0.0
 11
6.300000000000011
 21
17.8
 31
0.0
  0
LINE
  5
14C
330
74
100
AcDbEntity
  8
P_LISTONES
 62
     5
100
AcDbLine
 10
6.300000000000011
 20
17.8
 30
0.0
 11
1.900000000000001
 21
17.8
 31
0.0
  0
ENDBLK
  5
76
330
74
100
AcDbEntity
  8
0
100
AcDbBlockEnd
  0
BLOCK
  5
78
330
77
100
AcDbEntity
  8
0
100
AcDbBlockBegin
  2
GRUPO_2
 70
     0
 10
0.0
 20
0.0
 30
0.0
  3
GRUPO_2
  1

  0
POLYLINE
  5
14E
330
77
100
AcDbEntity
  8
0
 62
     0
100
AcDbPolyFaceMesh
 66
     1
 10
0.0
 20
0.0
 30
0.0
 70
    64
 71
     4
 72
     2
1001
ACAD_MATERIAL_MAPPER
1070
     1
1070
     1
1070
     1
1011
0.0
1021
0.0
1031
0.0
1011
-2.54
1021
0.0
1031
0.0
1011
0.0
1021
2.54
1031
0.0
1011
0.0
1021
0.0
1031
1.0
  0
VERTEX
  5
14F
330
14E
100
AcDbEntity
  8
0
 62
     0
100
AcDbVertex
100
AcDbPolyFaceMeshVertex
 10
74.99999999999999
 20
5.500000000000001
 30
0.0
 70
   192
  0
VERTEX
  5
150
330
14E
100
AcDbEntity
  8
0
 62
     0
100
AcDbVertex
100
AcDbPolyFaceMeshVertex
 10
0.0
 20
0.0
 30
0.0
 70
   192
  0
VERTEX
  5
151
330
14E
100
AcDbEntity
  8
0
 62
     0
100
AcDbVertex
100
AcDbPolyFaceMeshVertex
 10
0.0
 20
5.500000000000001
 30
0.0
 70
   192
  0
VERTEX
  5
152
330
14E
100
AcDbEntity
  8
0
 62
     0
100
AcDbVertex
100
AcDbPolyFaceMeshVertex
 10
74.99999999999999
 20
0.0000000000000001
 30
0.0
 70
   192
  0
VERTEX
  5
153
330
14E
100
AcDbEntity
  8
0
 62
     0
100
AcDbFaceRecord
 10
0.0
 20
0.0
 30
0.0
 70
   128
 71
    -1
 72
     2
 73
     3
  0
VERTEX
  5
154
330
14E
100
AcDbEntity
  8
0
 62
     0
100
AcDbFaceRecord
 10
0.0
 20
0.0
 30
0.0
 70
   128
 71
    -2
 72
     1
 73
     4
  0
SEQEND
  5
155
330
14E
100
AcDbEntity
  8
0
 62
     0
  0
LINE
  5
156
330
77
100
AcDbEntity
  8
0
 62
     0
100
AcDbLine
 10
74.99999999999999
 20
0.0000000000000001
 30
0.0
 11
0.0
 21
0.0
 31
0.0
  0
LINE
  5
157
330
77
100
AcDbEntity
  8
0
 62
     0
100
AcDbLine
 10
0.0
 20
0.0
 30
0.0
 11
0.0
 21
5.500000000000001
 31
0.0
  0
LINE
  5
158
330
77
100
AcDbEntity
  8
0
 62
     0
100
AcDbLine
 10
0.0
 20
5.500000000000001
 30
0.0
 11
74.99999999999999
 21
5.500000000000001
 31
0.0
  0
LINE
  5
159
330
77
100
AcDbEntity
  8
0
 62
     0
100
AcDbLine
 10
74.99999999999999
 20
5.500000000000001
 30
0.0
 11
74.99999999999999
 21
0.0000000000000001
 31
0.0
  0
POLYLINE
  5
15A
330
77
100
AcDbEntity
  8
0
 62
     0
100
AcDbPolyFaceMesh
 66
     1
 10
0.0
 20
0.0
 30
0.0
 70
    64
 71
     4
 72
     2
1001
ACAD_MATERIAL_MAPPER
1070
     1
1070
     1
1070
     1
1011
0.0
1021
0.0
1031
0.0
1011
2.54
1021
0.0
1031
0.0
1011
0.0
1021
2.54
1031
0.0
1011
0.0
1021
0.0
1031
1.0
  0
VERTEX
  5
15B
330
15A
100
AcDbEntity
  8
0
 62
     0
100
AcDbVertex
100
AcDbPolyFaceMeshVertex
 10
74.99999999999999
 20
0.0000000000000001
 30
203.0
 70
   192
  0
VERTEX
  5
15C
330
15A
100
AcDbEntity
  8
0
 62
     0
100
AcDbVertex
100
AcDbPolyFaceMeshVertex
 10
0.0
 20
5.500000000000001
 30
203.0
 70
   192
  0
VERTEX
  5
15D
330
15A
100
AcDbEntity
  8
0
 62
     0
100
AcDbVertex
100
AcDbPolyFaceMeshVertex
 10
0.0
 20
0.0
 30
203.0
 70
   192
  0
VERTEX
  5
15E
330
15A
100
AcDbEntity
  8
0
 62
     0
100
AcDbVertex
100
AcDbPolyFaceMeshVertex
 10
74.99999999999999
 20
5.500000000000001
 30
203.0
 70
   192
  0
VERTEX
  5
15F
330
15A
100
AcDbEntity
  8
0
 62
     0
100
AcDbFaceRecord
 10
0.0
 20
0.0
 30
0.0
 70
   128
 71
    -1
 72
     2
 73
     3
  0
VERTEX
  5
160
330
15A
100
AcDbEntity
  8
0
 62
     0
100
AcDbFaceRecord
 10
0.0
 20
0.0
 30
0.0
 70
   128
 71
    -2
 72
     1
 73
     4
  0
SEQEND
  5
161
330
15A
100
AcDbEntity
  8
0
 62
     0
  0
LINE
  5
162
330
77
100
AcDbEntity
  8
0
 62
     0
100
AcDbLine
 10
74.99999999999999
 20
0.0000000000000001
 30
203.0
 11
0.0
 21
0.0
 31
203.0
  0
LINE
  5
163
330
77
100
AcDbEntity
  8
0
 62
     0
100
AcDbLine
 10
74.99999999999999
 20
5.500000000000001
 30
203.0
 11
74.99999999999999
 21
0.0000000000000001
 31
203.0
  0
LINE
  5
164
330
77
100
AcDbEntity
  8
0
 62
     0
100
AcDbLine
 10
0.0
 20
5.500000000000001
 30
203.0
 11
74.99999999999999
 21
5.500000000000001
 31
203.0
  0
LINE
  5
165
330
77
100
AcDbEntity
  8
0
 62
     0
100
AcDbLine
 10
0.0
 20
0.0
 30
203.0
 11
0.0
 21
5.500000000000001
 31
203.0
  0
POLYLINE
  5
166
330
77
100
AcDbEntity
  8
0
 62
     0
100
AcDbPolyFaceMesh
 66
     1
 10
0.0
 20
0.0
 30
0.0
 70
    64
 71
    12
 72
    14
1001
ACAD_MATERIAL_MAPPER
1070
     1
1070
     1
1070
     1
1011
0.0
1021
0.0
1031
0.0
1011
2.54
1021
0.0
1031
0.0
1011
0.0
1021
0.0
1031
2.54
1011
0.0
1021
1.0
1031
0.0
  0
VERTEX
  5
167
330
166
100
AcDbEntity
  8
0
 62
     0
100
AcDbVertex
100
AcDbPolyFaceMeshVertex
 10
74.99999999999999
 20
0.0000000000000001
 30
0.0
 70
   192
  0
VERTEX
  5
168
330
166
100
AcDbEntity
  8
0
 62
     0
100
AcDbVertex
100
AcDbPolyFaceMeshVertex
 10
69.49999999999994
 20
0.0000000000000001
 30
5.500000000000002
 70
   192
  0
VERTEX
  5
169
330
166
100
AcDbEntity
  8
0
 62
     0
100
AcDbVertex
100
AcDbPolyFaceMeshVertex
 10
0.0
 20
0.0
 30
0.0
 70
   192
  0
VERTEX
  5
16A
330
166
100
AcDbEntity
  8
0
 62
     0
100
AcDbVertex
100
AcDbPolyFaceMeshVertex
 10
74.99999999999999
 20
0.0000000000000001
 30
203.0
 70
   192
  0
VERTEX
  5
16B
330
166
100
AcDbEntity
  8
0
 62
     0
100
AcDbVertex
100
AcDbPolyFaceMeshVertex
 10
69.49999999999994
 20
0.0000000000000001
 30
83.00000000000001
 70
   192
  0
VERTEX
  5
16C
330
166
100
AcDbEntity
  8
0
 62
     0
100
AcDbVertex
100
AcDbPolyFaceMeshVertex
 10
69.49999999999994
 20
0.0000000000000001
 30
88.5
 70
   192
  0
VERTEX
  5
16D
330
166
100
AcDbEntity
  8
0
 62
     0
100
AcDbVertex
100
AcDbPolyFaceMeshVertex
 10
5.500000000000012
 20
0.0000000000000001
 30
83.00000000000001
 70
   192
  0
VERTEX
  5
16E
330
166
100
AcDbEntity
  8
0
 62
     0
100
AcDbVertex
100
AcDbPolyFaceMeshVertex
 10
69.49999999999994
 20
0.0000000000000001
 30
197.5
 70
   192
  0
VERTEX
  5
16F
330
166
100
AcDbEntity
  8
0
 62
     0
100
AcDbVertex
100
AcDbPolyFaceMeshVertex
 10
5.500000000000012
 20
0.0000000000000001
 30
197.5
 70
   192
  0
VERTEX
  5
170
330
166
100
AcDbEntity
  8
0
 62
     0
100
AcDbVertex
100
AcDbPolyFaceMeshVertex
 10
5.500000000000012
 20
0.0000000000000001
 30
5.500000000000002
 70
   192
  0
VERTEX
  5
171
330
166
100
AcDbEntity
  8
0
 62
     0
100
AcDbVertex
100
AcDbPolyFaceMeshVertex
 10
0.0
 20
0.0
 30
203.0
 70
   192
  0
VERTEX
  5
172
330
166
100
AcDbEntity
  8
0
 62
     0
100
AcDbVertex
100
AcDbPolyFaceMeshVertex
 10
5.500000000000012
 20
0.0000000000000001
 30
88.5
 70
   192
  0
VERTEX
  5
173
330
166
100
AcDbEntity
  8
0
 62
     0
100
AcDbFaceRecord
 10
0.0
 20
0.0
 30
0.0
 70
   128
 71
    -1
 72
    -2
 73
     3
  0
VERTEX
  5
174
330
166
100
AcDbEntity
  8
0
 62
     0
100
AcDbFaceRecord
 10
0.0
 20
0.0
 30
0.0
 70
   128
 71
    -2
 72
     1
 73
    -4
  0
VERTEX
  5
175
330
166
100
AcDbEntity
  8
0
 62
     0
100
AcDbFaceRecord
 10
0.0
 20
0.0
 30
0.0
 70
   128
 71
    -2
 72
    -4
 73
     5
  0
VERTEX
  5
176
330
166
100
AcDbEntity
  8
0
 62
     0
100
AcDbFaceRecord
 10
0.0
 20
0.0
 30
0.0
 70
   128
 71
    -5
 72
    -4
 73
    -6
  0
VERTEX
  5
177
330
166
100
AcDbEntity
  8
0
 62
     0
100
AcDbFaceRecord
 10
0.0
 20
0.0
 30
0.0
 70
   128
 71
    -5
 72
    -6
 73
     7
  0
VERTEX
  5
178
330
166
100
AcDbEntity
  8
0
 62
     0
100
AcDbFaceRecord
 10
0.0
 20
0.0
 30
0.0
 70
   128
 71
    -6
 72
    -4
 73
     8
  0
VERTEX
  5
179
330
166
100
AcDbEntity
  8
0
 62
     0
100
AcDbFaceRecord
 10
0.0
 20
0.0
 30
0.0
 70
   128
 71
    -8
 72
    -4
 73
     9
  0
VERTEX
  5
17A
330
166
100
AcDbEntity
  8
0
 62
     0
100
AcDbFaceRecord
 10
0.0
 20
0.0
 30
0.0
 70
   128
 71
    -3
 72
   -10
 73
    11
  0
VERTEX
  5
17B
330
166
100
AcDbEntity
  8
0
 62
     0
100
AcDbFaceRecord
 10
0.0
 20
0.0
 30
0.0
 70
   128
 71
   -10
 72
    -3
 73
     2
  0
VERTEX
  5
17C
330
166
100
AcDbEntity
  8
0
 62
     0
100
AcDbFaceRecord
 10
0.0
 20
0.0
 30
0.0
 70
   128
 71
   -11
 72
    10
 73
    -7
  0
VERTEX
  5
17D
330
166
100
AcDbEntity
  8
0
 62
     0
100
AcDbFaceRecord
 10
0.0
 20
0.0
 30
0.0
 70
   128
 71
   -11
 72
    -7
 73
   -12
  0
VERTEX
  5
17E
330
166
100
AcDbEntity
  8
0
 62
     0
100
AcDbFaceRecord
 10
0.0
 20
0.0
 30
0.0
 70
   128
 71
   -12
 72
    -7
 73
     6
  0
VERTEX
  5
17F
330
166
100
AcDbEntity
  8
0
 62
     0
100
AcDbFaceRecord
 10
0.0
 20
0.0
 30
0.0
 70
   128
 71
   -11
 72
    12
 73
    -9
  0
VERTEX
  5
180
330
166
100
AcDbEntity
  8
0
 62
     0
100
AcDbFaceRecord
 10
0.0
 20
0.0
 30
0.0
 70
   128
 71
   -11
 72
    -9
 73
     4
  0
SEQEND
  5
181
330
166
100
AcDbEntity
  8
0
 62
     0
  0
LINE
  5
182
330
77
100
AcDbEntity
  8
0
 62
     0
100
AcDbLine
 10
74.99999999999999
 20
0.0000000000000001
 30
0.0
 11
0.0
 21
0.0
 31
0.0
  0
LINE
  5
183
330
77
100
AcDbEntity
  8
0
 62
     0
100
AcDbLine
 10
74.99999999999999
 20
0.0000000000000001
 30
0.0
 11
74.99999999999999
 21
0.0000000000000001
 31
203.0
  0
LINE
  5
184
330
77
100
AcDbEntity
  8
0
 62
     0
100
AcDbLine
 10
74.99999999999999
 20
0.0000000000000001
 30
203.0
 11
0.0
 21
0.0
 31
203.0
  0
LINE
  5
185
330
77
100
AcDbEntity
  8
0
 62
     0
100
AcDbLine
 10
0.0
 20
0.0
 30
0.0
 11
0.0
 21
0.0
 31
203.0
  0
LINE
  5
186
330
77
100
AcDbEntity
  8
0
 62
     0
100
AcDbLine
 10
69.49999999999994
 20
0.0000000000000001
 30
88.5
 11
69.49999999999994
 21
0.0000000000000001
 31
197.5
  0
LINE
  5
187
330
77
100
AcDbEntity
  8
0
 62
     0
100
AcDbLine
 10
5.500000000000012
 20
0.0000000000000001
 30
88.5
 11
69.49999999999994
 21
0.0000000000000001
 31
88.5
  0
LINE
  5
188
330
77
100
AcDbEntity
  8
0
 62
     0
100
AcDbLine
 10
5.500000000000012
 20
0.0000000000000001
 30
197.5
 11
5.500000000000012
 21
0.0000000000000001
 31
88.5
  0
LINE
  5
189
330
77
100
AcDbEntity
  8
0
 62
     0
100
AcDbLine
 10
69.49999999999994
 20
0.0000000000000001
 30
197.5
 11
5.500000000000012
 21
0.0000000000000001
 31
197.5
  0
LINE
  5
18A
330
77
100
AcDbEntity
  8
0
 62
     0
100
AcDbLine
 10
5.500000000000012
 20
0.0000000000000001
 30
83.00000000000001
 11
69.49999999999994
 21
0.0000000000000001
 31
83.00000000000001
  0
LINE
  5
18B
330
77
100
AcDbEntity
  8
0
 62
     0
100
AcDbLine
 10
69.49999999999994
 20
0.0000000000000001
 30
83.00000000000001
 11
69.49999999999994
 21
0.0000000000000001
 31
5.500000000000002
  0
LINE
  5
18C
330
77
100
AcDbEntity
  8
0
 62
     0
100
AcDbLine
 10
69.49999999999994
 20
0.0000000000000001
 30
5.500000000000002
 11
5.500000000000012
 21
0.0000000000000001
 31
5.500000000000002
  0
LINE
  5
18D
330
77
100
AcDbEntity
  8
0
 62
     0
100
AcDbLine
 10
5.500000000000012
 20
0.0000000000000001
 30
5.500000000000002
 11
5.500000000000012
 21
0.0000000000000001
 31
83.00000000000001
  0
POLYLINE
  5
18E
330
77
100
AcDbEntity
  8
0
 62
     0
100
AcDbPolyFaceMesh
 66
     1
 10
0.0
 20
0.0
 30
0.0
 70
    64
 71
     4
 72
     2
1001
ACAD_MATERIAL_MAPPER
1070
     1
1070
     1
1070
     1
1011
0.0
1021
0.0
1031
0.0
1011
0.0
1021
-2.54
1031
0.0
1011
0.0
1021
0.0
1031
2.54
1011
1.0
1021
0.0
1031
0.0
  0
VERTEX
  5
18F
330
18E
100
AcDbEntity
  8
0
 62
     0
100
AcDbVertex
100
AcDbPolyFaceMeshVertex
 10
0.0
 20
5.500000000000001
 30
203.0
 70
   192
  0
VERTEX
  5
190
330
18E
100
AcDbEntity
  8
0
 62
     0
100
AcDbVertex
100
AcDbPolyFaceMeshVertex
 10
0.0
 20
0.0
 30
0.0
 70
   192
  0
VERTEX
  5
191
330
18E
100
AcDbEntity
  8
0
 62
     0
100
AcDbVertex
100
AcDbPolyFaceMeshVertex
 10
0.0
 20
0.0
 30
203.0
 70
   192
  0
VERTEX
  5
192
330
18E
100
AcDbEntity
  8
0
 62
     0
100
AcDbVertex
100
AcDbPolyFaceMeshVertex
 10
0.0
 20
5.500000000000001
 30
0.0
 70
   192
  0
VERTEX
  5
193
330
18E
100
AcDbEntity
  8
0
 62
     0
100
AcDbFaceRecord
 10
0.0
 20
0.0
 30
0.0
 70
   128
 71
    -1
 72
     2
 73
     3
  0
VERTEX
  5
194
330
18E
100
AcDbEntity
  8
0
 62
     0
100
AcDbFaceRecord
 10
0.0
 20
0.0
 30
0.0
 70
   128
 71
    -2
 72
     1
 73
     4
  0
SEQEND
  5
195
330
18E
100
AcDbEntity
  8
0
 62
     0
  0
LINE
  5
196
330
77
100
AcDbEntity
  8
0
 62
     0
100
AcDbLine
 10
0.0
 20
0.0
 30
0.0
 11
0.0
 21
5.500000000000001
 31
0.0
  0
LINE
  5
197
330
77
100
AcDbEntity
  8
0
 62
     0
100
AcDbLine
 10
0.0
 20
0.0
 30
0.0
 11
0.0
 21
0.0
 31
203.0
  0
LINE
  5
198
330
77
100
AcDbEntity
  8
0
 62
     0
100
AcDbLine
 10
0.0
 20
0.0
 30
203.0
 11
0.0
 21
5.500000000000001
 31
203.0
  0
LINE
  5
199
330
77
100
AcDbEntity
  8
0
 62
     0
100
AcDbLine
 10
0.0
 20
5.500000000000001
 30
0.0
 11
0.0
 21
5.500000000000001
 31
203.0
  0
POLYLINE
  5
19A
330
77
100
AcDbEntity
  8
0
 62
     0
100
AcDbPolyFaceMesh
 66
     1
 10
0.0
 20
0.0
 30
0.0
 70
    64
 71
     8
 72
     8
1001
ACAD_MATERIAL_MAPPER
1070
     1
1070
     1
1070
     1
1011
0.0
1021
0.0
1031
0.0
1011
-2.54
1021
0.0
1031
0.0
1011
0.0
1021
0.0
1031
2.54
1011
0.0
1021
1.0
1031
0.0
  0
VERTEX
  5
19B
330
19A
100
AcDbEntity
  8
0
 62
     0
100
AcDbVertex
100
AcDbPolyFaceMeshVertex
 10
0.0
 20
5.500000000000001
 30
0.0
 70
   192
  0
VERTEX
  5
19C
330
19A
100
AcDbEntity
  8
0
 62
     0
100
AcDbVertex
100
AcDbPolyFaceMeshVertex
 10
5.500000000000012
 20
5.500000000000024
 30
88.5
 70
   192
  0
VERTEX
  5
19D
330
19A
100
AcDbEntity
  8
0
 62
     0
100
AcDbVertex
100
AcDbPolyFaceMeshVertex
 10
74.99999999999999
 20
5.500000000000001
 30
0.0
 70
   192
  0
VERTEX
  5
19E
330
19A
100
AcDbEntity
  8
0
 62
     0
100
AcDbVertex
100
AcDbPolyFaceMeshVertex
 10
0.0
 20
5.500000000000001
 30
203.0
 70
   192
  0
VERTEX
  5
19F
330
19A
100
AcDbEntity
  8
0
 62
     0
100
AcDbVertex
100
AcDbPolyFaceMeshVertex
 10
5.500000000000012
 20
5.500000000000024
 30
197.5
 70
   192
  0
VERTEX
  5
1A0
330
19A
100
AcDbEntity
  8
0
 62
     0
100
AcDbVertex
100
AcDbPolyFaceMeshVertex
 10
69.49999999999994
 20
5.500000000000024
 30
197.5
 70
   192
  0
VERTEX
  5
1A1
330
19A
100
AcDbEntity
  8
0
 62
     0
100
AcDbVertex
100
AcDbPolyFaceMeshVertex
 10
69.49999999999994
 20
5.500000000000024
 30
88.5
 70
   192
  0
VERTEX
  5
1A2
330
19A
100
AcDbEntity
  8
0
 62
     0
100
AcDbVertex
100
AcDbPolyFaceMeshVertex
 10
74.99999999999999
 20
5.500000000000001
 30
203.0
 70
   192
  0
VERTEX
  5
1A3
330
19A
100
AcDbEntity
  8
0
 62
     0
100
AcDbFaceRecord
 10
0.0
 20
0.0
 30
0.0
 70
   128
 71
    -1
 72
    -2
 73
     3
  0
VERTEX
  5
1A4
330
19A
100
AcDbEntity
  8
0
 62
     0
100
AcDbFaceRecord
 10
0.0
 20
0.0
 30
0.0
 70
   128
 71
    -2
 72
     1
 73
    -4
  0
VERTEX
  5
1A5
330
19A
100
AcDbEntity
  8
0
 62
     0
100
AcDbFaceRecord
 10
0.0
 20
0.0
 30
0.0
 70
   128
 71
    -2
 72
    -4
 73
     5
  0
VERTEX
  5
1A6
330
19A
100
AcDbEntity
  8
0
 62
     0
100
AcDbFaceRecord
 10
0.0
 20
0.0
 30
0.0
 70
   128
 71
    -5
 72
    -4
 73
     6
  0
VERTEX
  5
1A7
330
19A
100
AcDbEntity
  8
0
 62
     0
100
AcDbFaceRecord
 10
0.0
 20
0.0
 30
0.0
 70
   128
 71
    -3
 72
    -7
 73
     8
  0
VERTEX
  5
1A8
330
19A
100
AcDbEntity
  8
0
 62
     0
100
AcDbFaceRecord
 10
0.0
 20
0.0
 30
0.0
 70
   128
 71
    -7
 72
    -3
 73
     2
  0
VERTEX
  5
1A9
330
19A
100
AcDbEntity
  8
0
 62
     0
100
AcDbFaceRecord
 10
0.0
 20
0.0
 30
0.0
 70
   128
 71
    -8
 72
     7
 73
    -6
  0
VERTEX
  5
1AA
330
19A
100
AcDbEntity
  8
0
 62
     0
100
AcDbFaceRecord
 10
0.0
 20
0.0
 30
0.0
 70
   128
 71
    -8
 72
    -6
 73
     4
  0
SEQEND
  5
1AB
330
19A
100
AcDbEntity
  8
0
 62
     0
  0
LINE
  5
1AC
330
77
100
AcDbEntity
  8
0
 62
     0
100
AcDbLine
 10
0.0
 20
5.500000000000001
 30
0.0
 11
74.99999999999999
 21
5.500000000000001
 31
0.0
  0
LINE
  5
1AD
330
77
100
AcDbEntity
  8
0
 62
     0
100
AcDbLine
 10
0.0
 20
5.500000000000001
 30
0.0
 11
0.0
 21
5.500000000000001
 31
203.0
  0
LINE
  5
1AE
330
77
100
AcDbEntity
  8
0
 62
     0
100
AcDbLine
 10
0.0
 20
5.500000000000001
 30
203.0
 11
74.99999999999999
 21
5.500000000000001
 31
203.0
  0
LINE
  5
1AF
330
77
100
AcDbEntity
  8
0
 62
     0
100
AcDbLine
 10
74.99999999999999
 20
5.500000000000001
 30
0.0
 11
74.99999999999999
 21
5.500000000000001
 31
203.0
  0
LINE
  5
1B0
330
77
100
AcDbEntity
  8
0
 62
     0
100
AcDbLine
 10
69.49999999999994
 20
5.500000000000024
 30
88.5
 11
69.49999999999994
 21
5.500000000000024
 31
197.5
  0
LINE
  5
1B1
330
77
100
AcDbEntity
  8
0
 62
     0
100
AcDbLine
 10
69.49999999999994
 20
5.500000000000024
 30
197.5
 11
5.500000000000012
 21
5.500000000000024
 31
197.5
  0
LINE
  5
1B2
330
77
100
AcDbEntity
  8
0
 62
     0
100
AcDbLine
 10
5.500000000000012
 20
5.500000000000024
 30
197.5
 11
5.500000000000012
 21
5.500000000000024
 31
88.5
  0
LINE
  5
1B3
330
77
100
AcDbEntity
  8
0
 62
     0
100
AcDbLine
 10
5.500000000000012
 20
5.500000000000024
 30
88.5
 11
69.49999999999994
 21
5.500000000000024
 31
88.5
  0
POLYLINE
  5
1B4
330
77
100
AcDbEntity
  8
0
 62
     0
100
AcDbPolyFaceMesh
 66
     1
 10
0.0
 20
0.0
 30
0.0
 70
    64
 71
     4
 72
     2
1001
ACAD_MATERIAL_MAPPER
1070
     1
1070
     1
1070
     1
1011
0.0
1021
0.0
1031
0.0
1011
0.0
1021
2.54
1031
0.0
1011
0.0
1021
0.0
1031
2.54
1011
1.0
1021
0.0
1031
0.0
  0
VERTEX
  5
1B5
330
1B4
100
AcDbEntity
  8
0
 62
     0
100
AcDbVertex
100
AcDbPolyFaceMeshVertex
 10
74.99999999999999
 20
5.500000000000001
 30
0.0
 70
   192
  0
VERTEX
  5
1B6
330
1B4
100
AcDbEntity
  8
0
 62
     0
100
AcDbVertex
100
AcDbPolyFaceMeshVertex
 10
74.99999999999999
 20
0.0000000000000001
 30
203.0
 70
   192
  0
VERTEX
  5
1B7
330
1B4
100
AcDbEntity
  8
0
 62
     0
100
AcDbVertex
100
AcDbPolyFaceMeshVertex
 10
74.99999999999999
 20
0.0000000000000001
 30
0.0
 70
   192
  0
VERTEX
  5
1B8
330
1B4
100
AcDbEntity
  8
0
 62
     0
100
AcDbVertex
100
AcDbPolyFaceMeshVertex
 10
74.99999999999999
 20
5.500000000000001
 30
203.0
 70
   192
  0
VERTEX
  5
1B9
330
1B4
100
AcDbEntity
  8
0
 62
     0
100
AcDbFaceRecord
 10
0.0
 20
0.0
 30
0.0
 70
   128
 71
    -1
 72
     2
 73
     3
  0
VERTEX
  5
1BA
330
1B4
100
AcDbEntity
  8
0
 62
     0
100
AcDbFaceRecord
 10
0.0
 20
0.0
 30
0.0
 70
   128
 71
    -2
 72
     1
 73
     4
  0
SEQEND
  5
1BB
330
1B4
100
AcDbEntity
  8
0
 62
     0
  0
LINE
  5
1BC
330
77
100
AcDbEntity
  8
0
 62
     0
100
AcDbLine
 10
74.99999999999999
 20
5.500000000000001
 30
0.0
 11
74.99999999999999
 21
0.0000000000000001
 31
0.0
  0
LINE
  5
1BD
330
77
100
AcDbEntity
  8
0
 62
     0
100
AcDbLine
 10
74.99999999999999
 20
5.500000000000001
 30
0.0
 11
74.99999999999999
 21
5.500000000000001
 31
203.0
  0
LINE
  5
1BE
330
77
100
AcDbEntity
  8
0
 62
     0
100
AcDbLine
 10
74.99999999999999
 20
5.500000000000001
 30
203.0
 11
74.99999999999999
 21
0.0000000000000001
 31
203.0
  0
LINE
  5
1BF
330
77
100
AcDbEntity
  8
0
 62
     0
100
AcDbLine
 10
74.99999999999999
 20
0.0000000000000001
 30
0.0
 11
74.99999999999999
 21
0.0000000000000001
 31
203.0
  0
POLYLINE
  5
1C0
330
77
100
AcDbEntity
  8
0
 62
     0
100
AcDbPolyFaceMesh
 66
     1
 10
0.0
 20
0.0
 30
0.0
 70
    64
 71
     4
 72
     2
1001
ACAD_MATERIAL_MAPPER
1070
     1
1070
     1
1070
     1
1011
0.0
1021
0.0000000000000001
1031
0.0
1011
0.0
1021
-2.54
1031
0.0
1011
0.0
1021
0.0000000000000001
1031
2.54
1011
1.0
1021
0.0000000000000001
1031
0.0
  0
VERTEX
  5
1C1
330
1C0
100
AcDbEntity
  8
0
 62
     0
100
AcDbVertex
100
AcDbPolyFaceMeshVertex
 10
69.49999999999994
 20
5.500000000000024
 30
197.5
 70
   192
  0
VERTEX
  5
1C2
330
1C0
100
AcDbEntity
  8
0
 62
     0
100
AcDbVertex
100
AcDbPolyFaceMeshVertex
 10
69.49999999999994
 20
0.0000000000000001
 30
88.5
 70
   192
  0
VERTEX
  5
1C3
330
1C0
100
AcDbEntity
  8
0
 62
     0
100
AcDbVertex
100
AcDbPolyFaceMeshVertex
 10
69.49999999999994
 20
0.0000000000000001
 30
197.5
 70
   192
  0
VERTEX
  5
1C4
330
1C0
100
AcDbEntity
  8
0
 62
     0
100
AcDbVertex
100
AcDbPolyFaceMeshVertex
 10
69.49999999999994
 20
5.500000000000024
 30
88.5
 70
   192
  0
VERTEX
  5
1C5
330
1C0
100
AcDbEntity
  8
0
 62
     0
100
AcDbFaceRecord
 10
0.0
 20
0.0
 30
0.0
 70
   128
 71
    -1
 72
     2
 73
     3
  0
VERTEX
  5
1C6
330
1C0
100
AcDbEntity
  8
0
 62
     0
100
AcDbFaceRecord
 10
0.0
 20
0.0
 30
0.0
 70
   128
 71
    -2
 72
     1
 73
     4
  0
SEQEND
  5
1C7
330
1C0
100
AcDbEntity
  8
0
 62
     0
  0
LINE
  5
1C8
330
77
100
AcDbEntity
  8
0
 62
     0
100
AcDbLine
 10
69.49999999999994
 20
0.0000000000000001
 30
88.5
 11
69.49999999999994
 21
0.0000000000000001
 31
197.5
  0
LINE
  5
1C9
330
77
100
AcDbEntity
  8
0
 62
     0
100
AcDbLine
 10
69.49999999999994
 20
0.0000000000000001
 30
197.5
 11
69.49999999999994
 21
5.500000000000024
 31
197.5
  0
LINE
  5
1CA
330
77
100
AcDbEntity
  8
0
 62
     0
100
AcDbLine
 10
69.49999999999994
 20
5.500000000000024
 30
88.5
 11
69.49999999999994
 21
5.500000000000024
 31
197.5
  0
LINE
  5
1CB
330
77
100
AcDbEntity
  8
0
 62
     0
100
AcDbLine
 10
69.49999999999994
 20
0.0000000000000001
 30
88.5
 11
69.49999999999994
 21
5.500000000000024
 31
88.5
  0
POLYLINE
  5
1CC
330
77
100
AcDbEntity
  8
0
 62
     0
100
AcDbPolyFaceMesh
 66
     1
 10
0.0
 20
0.0
 30
0.0
 70
    64
 71
     4
 72
     2
1001
ACAD_MATERIAL_MAPPER
1070
     1
1070
     1
1070
     1
1011
-0.0000000000000006
1021
0.0
1031
0.0
1011
-2.540000000000001
1021
0.0
1031
0.0
1011
-0.0000000000000006
1021
2.54
1031
0.0
1011
-0.0000000000000006
1021
0.0
1031
1.0
  0
VERTEX
  5
1CD
330
1CC
100
AcDbEntity
  8
0
 62
     0
100
AcDbVertex
100
AcDbPolyFaceMeshVertex
 10
69.49999999999994
 20
5.500000000000024
 30
197.5
 70
   192
  0
VERTEX
  5
1CE
330
1CC
100
AcDbEntity
  8
0
 62
     0
100
AcDbVertex
100
AcDbPolyFaceMeshVertex
 10
5.500000000000012
 20
0.0000000000000001
 30
197.5
 70
   192
  0
VERTEX
  5
1CF
330
1CC
100
AcDbEntity
  8
0
 62
     0
100
AcDbVertex
100
AcDbPolyFaceMeshVertex
 10
5.500000000000012
 20
5.500000000000024
 30
197.5
 70
   192
  0
VERTEX
  5
1D0
330
1CC
100
AcDbEntity
  8
0
 62
     0
100
AcDbVertex
100
AcDbPolyFaceMeshVertex
 10
69.49999999999994
 20
0.0000000000000001
 30
197.5
 70
   192
  0
VERTEX
  5
1D1
330
1CC
100
AcDbEntity
  8
0
 62
     0
100
AcDbFaceRecord
 10
0.0
 20
0.0
 30
0.0
 70
   128
 71
    -1
 72
     2
 73
     3
  0
VERTEX
  5
1D2
330
1CC
100
AcDbEntity
  8
0
 62
     0
100
AcDbFaceRecord
 10
0.0
 20
0.0
 30
0.0
 70
   128
 71
    -2
 72
     1
 73
     4
  0
SEQEND
  5
1D3
330
1CC
100
AcDbEntity
  8
0
 62
     0
  0
LINE
  5
1D4
330
77
100
AcDbEntity
  8
0
 62
     0
100
AcDbLine
 10
69.49999999999994
 20
0.0000000000000001
 30
197.5
 11
5.500000000000012
 21
0.0000000000000001
 31
197.5
  0
LINE
  5
1D5
330
77
100
AcDbEntity
  8
0
 62
     0
100
AcDbLine
 10
5.500000000000012
 20
0.0000000000000001
 30
197.5
 11
5.500000000000012
 21
5.500000000000024
 31
197.5
  0
LINE
  5
1D6
330
77
100
AcDbEntity
  8
0
 62
     0
100
AcDbLine
 10
69.49999999999994
 20
5.500000000000024
 30
197.5
 11
5.500000000000012
 21
5.500000000000024
 31
197.5
  0
LINE
  5
1D7
330
77
100
AcDbEntity
  8
0
 62
     0
100
AcDbLine
 10
69.49999999999994
 20
0.0000000000000001
 30
197.5
 11
69.49999999999994
 21
5.500000000000024
 31
197.5
  0
POLYLINE
  5
1D8
330
77
100
AcDbEntity
  8
0
 62
     0
100
AcDbPolyFaceMesh
 66
     1
 10
0.0
 20
0.0
 30
0.0
 70
    64
 71
     4
 72
     2
1001
ACAD_MATERIAL_MAPPER
1070
     1
1070
     1
1070
     1
1011
0.0
1021
0.0
1031
0.0
1011
0.0
1021
2.54
1031
0.0
1011
0.0
1021
0.0
1031
2.54
1011
1.0
1021
0.0
1031
0.0
  0
VERTEX
  5
1D9
330
1D8
100
AcDbEntity
  8
0
 62
     0
100
AcDbVertex
100
AcDbPolyFaceMeshVertex
 10
5.500000000000012
 20
5.500000000000024
 30
88.5
 70
   192
  0
VERTEX
  5
1DA
330
1D8
100
AcDbEntity
  8
0
 62
     0
100
AcDbVertex
100
AcDbPolyFaceMeshVertex
 10
5.500000000000012
 20
0.0000000000000001
 30
197.5
 70
   192
  0
VERTEX
  5
1DB
330
1D8
100
AcDbEntity
  8
0
 62
     0
100
AcDbVertex
100
AcDbPolyFaceMeshVertex
 10
5.500000000000012
 20
0.0000000000000001
 30
88.5
 70
   192
  0
VERTEX
  5
1DC
330
1D8
100
AcDbEntity
  8
0
 62
     0
100
AcDbVertex
100
AcDbPolyFaceMeshVertex
 10
5.500000000000012
 20
5.500000000000024
 30
197.5
 70
   192
  0
VERTEX
  5
1DD
330
1D8
100
AcDbEntity
  8
0
 62
     0
100
AcDbFaceRecord
 10
0.0
 20
0.0
 30
0.0
 70
   128
 71
    -1
 72
     2
 73
     3
  0
VERTEX
  5
1DE
330
1D8
100
AcDbEntity
  8
0
 62
     0
100
AcDbFaceRecord
 10
0.0
 20
0.0
 30
0.0
 70
   128
 71
    -2
 72
     1
 73
     4
  0
SEQEND
  5
1DF
330
1D8
100
AcDbEntity
  8
0
 62
     0
  0
LINE
  5
1E0
330
77
100
AcDbEntity
  8
0
 62
     0
100
AcDbLine
 10
5.500000000000012
 20
0.0000000000000001
 30
197.5
 11
5.500000000000012
 21
0.0000000000000001
 31
88.5
  0
LINE
  5
1E1
330
77
100
AcDbEntity
  8
0
 62
     0
100
AcDbLine
 10
5.500000000000012
 20
0.0000000000000001
 30
88.5
 11
5.500000000000012
 21
5.500000000000024
 31
88.5
  0
LINE
  5
1E2
330
77
100
AcDbEntity
  8
0
 62
     0
100
AcDbLine
 10
5.500000000000012
 20
5.500000000000024
 30
197.5
 11
5.500000000000012
 21
5.500000000000024
 31
88.5
  0
LINE
  5
1E3
330
77
100
AcDbEntity
  8
0
 62
     0
100
AcDbLine
 10
5.500000000000012
 20
0.0000000000000001
 30
197.5
 11
5.500000000000012
 21
5.500000000000024
 31
197.5
  0
POLYLINE
  5
1E4
330
77
100
AcDbEntity
  8
0
 62
     0
100
AcDbPolyFaceMesh
 66
     1
 10
0.0
 20
0.0
 30
0.0
 70
    64
 71
     4
 72
     2
1001
ACAD_MATERIAL_MAPPER
1070
     1
1070
     1
1070
     1
1011
-0.000000000000001
1021
0.0
1031
0.0
1011
2.54
1021
0.0
1031
0.0
1011
-0.000000000000001
1021
2.54
1031
0.0
1011
-0.000000000000001
1021
0.0
1031
1.0
  0
VERTEX
  5
1E5
330
1E4
100
AcDbEntity
  8
0
 62
     0
100
AcDbVertex
100
AcDbPolyFaceMeshVertex
 10
69.49999999999994
 20
0.0000000000000001
 30
88.5
 70
   192
  0
VERTEX
  5
1E6
330
1E4
100
AcDbEntity
  8
0
 62
     0
100
AcDbVertex
100
AcDbPolyFaceMeshVertex
 10
5.500000000000012
 20
5.500000000000024
 30
88.5
 70
   192
  0
VERTEX
  5
1E7
330
1E4
100
AcDbEntity
  8
0
 62
     0
100
AcDbVertex
100
AcDbPolyFaceMeshVertex
 10
5.500000000000012
 20
0.0000000000000001
 30
88.5
 70
   192
  0
VERTEX
  5
1E8
330
1E4
100
AcDbEntity
  8
0
 62
     0
100
AcDbVertex
100
AcDbPolyFaceMeshVertex
 10
69.49999999999994
 20
5.500000000000024
 30
88.5
 70
   192
  0
VERTEX
  5
1E9
330
1E4
100
AcDbEntity
  8
0
 62
     0
100
AcDbFaceRecord
 10
0.0
 20
0.0
 30
0.0
 70
   128
 71
    -1
 72
     2
 73
     3
  0
VERTEX
  5
1EA
330
1E4
100
AcDbEntity
  8
0
 62
     0
100
AcDbFaceRecord
 10
0.0
 20
0.0
 30
0.0
 70
   128
 71
    -2
 72
     1
 73
     4
  0
SEQEND
  5
1EB
330
1E4
100
AcDbEntity
  8
0
 62
     0
  0
LINE
  5
1EC
330
77
100
AcDbEntity
  8
0
 62
     0
100
AcDbLine
 10
5.500000000000012
 20
0.0000000000000001
 30
88.5
 11
69.49999999999994
 21
0.0000000000000001
 31
88.5
  0
LINE
  5
1ED
330
77
100
AcDbEntity
  8
0
 62
     0
100
AcDbLine
 10
69.49999999999994
 20
0.0000000000000001
 30
88.5
 11
69.49999999999994
 21
5.500000000000024
 31
88.5
  0
LINE
  5
1EE
330
77
100
AcDbEntity
  8
0
 62
     0
100
AcDbLine
 10
5.500000000000012
 20
5.500000000000024
 30
88.5
 11
69.49999999999994
 21
5.500000000000024
 31
88.5
  0
LINE
  5
1EF
330
77
100
AcDbEntity
  8
0
 62
     0
100
AcDbLine
 10
5.500000000000012
 20
0.0000000000000001
 30
88.5
 11
5.500000000000012
 21
5.500000000000024
 31
88.5
  0
POLYLINE
  5
1F0
330
77
100
AcDbEntity
  8
0
 62
     0
100
AcDbPolyFaceMesh
 66
     1
 10
0.0
 20
0.0
 30
0.0
 70
    64
 71
     4
 72
     2
1001
ACAD_MATERIAL_MAPPER
1070
     1
1070
     1
1070
     1
1011
-0.0000000000000006
1021
0.0
1031
0.0000000000000009
1011
2.54
1021
0.0
1031
0.0000000000000009
1011
-0.0000000000000006
1021
0.0
1031
2.540000000000001
1011
-0.0000000000000006
1021
1.0
1031
0.0000000000000009
  0
VERTEX
  5
1F1
330
1F0
100
AcDbEntity
  8
0
 62
     0
100
AcDbVertex
100
AcDbPolyFaceMeshVertex
 10
69.49999999999994
 20
1.0
 30
83.00000000000001
 70
   192
  0
VERTEX
  5
1F2
330
1F0
100
AcDbEntity
  8
0
 62
     0
100
AcDbVertex
100
AcDbPolyFaceMeshVertex
 10
5.500000000000012
 20
1.0
 30
5.500000000000002
 70
   192
  0
VERTEX
  5
1F3
330
1F0
100
AcDbEntity
  8
0
 62
     0
100
AcDbVertex
100
AcDbPolyFaceMeshVertex
 10
69.49999999999994
 20
1.0
 30
5.500000000000002
 70
   192
  0
VERTEX
  5
1F4
330
1F0
100
AcDbEntity
  8
0
 62
     0
100
AcDbVertex
100
AcDbPolyFaceMeshVertex
 10
5.500000000000012
 20
0.9999999999999999
 30
83.00000000000001
 70
   192
  0
VERTEX
  5
1F5
330
1F0
100
AcDbEntity
  8
0
 62
     0
100
AcDbFaceRecord
 10
0.0
 20
0.0
 30
0.0
 70
   128
 71
    -1
 72
     2
 73
     3
  0
VERTEX
  5
1F6
330
1F0
100
AcDbEntity
  8
0
 62
     0
100
AcDbFaceRecord
 10
0.0
 20
0.0
 30
0.0
 70
   128
 71
    -2
 72
     1
 73
     4
  0
SEQEND
  5
1F7
330
1F0
100
AcDbEntity
  8
0
 62
     0
  0
LINE
  5
1F8
330
77
100
AcDbEntity
  8
0
 62
     0
100
AcDbLine
 10
5.500000000000012
 20
0.9999999999999999
 30
83.00000000000001
 11
69.49999999999994
 21
1.0
 31
83.00000000000001
  0
LINE
  5
1F9
330
77
100
AcDbEntity
  8
0
 62
     0
100
AcDbLine
 10
5.500000000000012
 20
1.0
 30
5.500000000000002
 11
5.500000000000012
 21
0.9999999999999999
 31
83.00000000000001
  0
LINE
  5
1FA
330
77
100
AcDbEntity
  8
0
 62
     0
100
AcDbLine
 10
69.49999999999994
 20
1.0
 30
5.500000000000002
 11
5.500000000000012
 21
1.0
 31
5.500000000000002
  0
LINE
  5
1FB
330
77
100
AcDbEntity
  8
0
 62
     0
100
AcDbLine
 10
69.49999999999994
 20
1.0
 30
83.00000000000001
 11
69.49999999999994
 21
1.0
 31
5.500000000000002
  0
POLYLINE
  5
1FC
330
77
100
AcDbEntity
  8
0
 62
     0
100
AcDbPolyFaceMesh
 66
     1
 10
0.0
 20
0.0
 30
0.0
 70
    64
 71
     4
 72
     2
1001
ACAD_MATERIAL_MAPPER
1070
     1
1070
     1
1070
     1
1011
-0.0000000000000014
1021
0.0
1031
0.0
1011
-2.540000000000001
1021
0.0
1031
0.0
1011
-0.0000000000000014
1021
2.54
1031
0.0
1011
-0.0000000000000014
1021
0.0
1031
1.0
  0
VERTEX
  5
1FD
330
1FC
100
AcDbEntity
  8
0
 62
     0
100
AcDbVertex
100
AcDbPolyFaceMeshVertex
 10
69.49999999999994
 20
1.0
 30
83.00000000000001
 70
   192
  0
VERTEX
  5
1FE
330
1FC
100
AcDbEntity
  8
0
 62
     0
100
AcDbVertex
100
AcDbPolyFaceMeshVertex
 10
5.500000000000012
 20
0.0000000000000001
 30
83.00000000000001
 70
   192
  0
VERTEX
  5
1FF
330
1FC
100
AcDbEntity
  8
0
 62
     0
100
AcDbVertex
100
AcDbPolyFaceMeshVertex
 10
5.500000000000012
 20
0.9999999999999999
 30
83.00000000000001
 70
   192
  0
VERTEX
  5
200
330
1FC
100
AcDbEntity
  8
0
 62
     0
100
AcDbVertex
100
AcDbPolyFaceMeshVertex
 10
69.49999999999994
 20
0.0000000000000001
 30
83.00000000000001
 70
   192
  0
VERTEX
  5
201
330
1FC
100
AcDbEntity
  8
0
 62
     0
100
AcDbFaceRecord
 10
0.0
 20
0.0
 30
0.0
 70
   128
 71
    -1
 72
     2
 73
     3
  0
VERTEX
  5
202
330
1FC
100
AcDbEntity
  8
0
 62
     0
100
AcDbFaceRecord
 10
0.0
 20
0.0
 30
0.0
 70
   128
 71
    -2
 72
     1
 73
     4
  0
SEQEND
  5
203
330
1FC
100
AcDbEntity
  8
0
 62
     0
  0
LINE
  5
204
330
77
100
AcDbEntity
  8
0
 62
     0
100
AcDbLine
 10
5.500000000000012
 20
0.0000000000000001
 30
83.00000000000001
 11
69.49999999999994
 21
0.0000000000000001
 31
83.00000000000001
  0
LINE
  5
205
330
77
100
AcDbEntity
  8
0
 62
     0
100
AcDbLine
 10
5.500000000000012
 20
0.0000000000000001
 30
83.00000000000001
 11
5.500000000000012
 21
0.9999999999999999
 31
83.00000000000001
  0
LINE
  5
206
330
77
100
AcDbEntity
  8
0
 62
     0
100
AcDbLine
 10
5.500000000000012
 20
0.9999999999999999
 30
83.00000000000001
 11
69.49999999999994
 21
1.0
 31
83.00000000000001
  0
LINE
  5
207
330
77
100
AcDbEntity
  8
0
 62
     0
100
AcDbLine
 10
69.49999999999994
 20
0.0000000000000001
 30
83.00000000000001
 11
69.49999999999994
 21
1.0
 31
83.00000000000001
  0
POLYLINE
  5
208
330
77
100
AcDbEntity
  8
0
 62
     0
100
AcDbPolyFaceMesh
 66
     1
 10
0.0
 20
0.0
 30
0.0
 70
    64
 71
     4
 72
     2
1001
ACAD_MATERIAL_MAPPER
1070
     1
1070
     1
1070
     1
1011
0.0
1021
0.0
1031
0.0
1011
0.0
1021
2.54
1031
0.0
1011
0.0
1021
0.0
1031
2.54
1011
1.0
1021
0.0
1031
0.0
  0
VERTEX
  5
209
330
208
100
AcDbEntity
  8
0
 62
     0
100
AcDbVertex
100
AcDbPolyFaceMeshVertex
 10
5.500000000000012
 20
0.0000000000000001
 30
5.500000000000002
 70
   192
  0
VERTEX
  5
20A
330
208
100
AcDbEntity
  8
0
 62
     0
100
AcDbVertex
100
AcDbPolyFaceMeshVertex
 10
5.500000000000012
 20
0.9999999999999999
 30
83.00000000000001
 70
   192
  0
VERTEX
  5
20B
330
208
100
AcDbEntity
  8
0
 62
     0
100
AcDbVertex
100
AcDbPolyFaceMeshVertex
 10
5.500000000000012
 20
0.0000000000000001
 30
83.00000000000001
 70
   192
  0
VERTEX
  5
20C
330
208
100
AcDbEntity
  8
0
 62
     0
100
AcDbVertex
100
AcDbPolyFaceMeshVertex
 10
5.500000000000012
 20
1.0
 30
5.500000000000002
 70
   192
  0
VERTEX
  5
20D
330
208
100
AcDbEntity
  8
0
 62
     0
100
AcDbFaceRecord
 10
0.0
 20
0.0
 30
0.0
 70
   128
 71
    -1
 72
     2
 73
     3
  0
VERTEX
  5
20E
330
208
100
AcDbEntity
  8
0
 62
     0
100
AcDbFaceRecord
 10
0.0
 20
0.0
 30
0.0
 70
   128
 71
    -2
 72
     1
 73
     4
  0
SEQEND
  5
20F
330
208
100
AcDbEntity
  8
0
 62
     0
  0
LINE
  5
210
330
77
100
AcDbEntity
  8
0
 62
     0
100
AcDbLine
 10
5.500000000000012
 20
0.0000000000000001
 30
5.500000000000002
 11
5.500000000000012
 21
0.0000000000000001
 31
83.00000000000001
  0
LINE
  5
211
330
77
100
AcDbEntity
  8
0
 62
     0
100
AcDbLine
 10
5.500000000000012
 20
0.0000000000000001
 30
5.500000000000002
 11
5.500000000000012
 21
1.0
 31
5.500000000000002
  0
LINE
  5
212
330
77
100
AcDbEntity
  8
0
 62
     0
100
AcDbLine
 10
5.500000000000012
 20
1.0
 30
5.500000000000002
 11
5.500000000000012
 21
0.9999999999999999
 31
83.00000000000001
  0
LINE
  5
213
330
77
100
AcDbEntity
  8
0
 62
     0
100
AcDbLine
 10
5.500000000000012
 20
0.0000000000000001
 30
83.00000000000001
 11
5.500000000000012
 21
0.9999999999999999
 31
83.00000000000001
  0
POLYLINE
  5
214
330
77
100
AcDbEntity
  8
0
 62
     0
100
AcDbPolyFaceMesh
 66
     1
 10
0.0
 20
0.0
 30
0.0
 70
    64
 71
     4
 72
     2
1001
ACAD_MATERIAL_MAPPER
1070
     1
1070
     1
1070
     1
1011
-0.0000000000000007
1021
0.0
1031
0.0
1011
2.54
1021
0.0
1031
0.0
1011
-0.0000000000000007
1021
2.54
1031
0.0
1011
-0.0000000000000007
1021
0.0
1031
1.0
  0
VERTEX
  5
215
330
214
100
AcDbEntity
  8
0
 62
     0
100
AcDbVertex
100
AcDbPolyFaceMeshVertex
 10
69.49999999999994
 20
0.0000000000000001
 30
5.500000000000002
 70
   192
  0
VERTEX
  5
216
330
214
100
AcDbEntity
  8
0
 62
     0
100
AcDbVertex
100
AcDbPolyFaceMeshVertex
 10
5.500000000000012
 20
1.0
 30
5.500000000000002
 70
   192
  0
VERTEX
  5
217
330
214
100
AcDbEntity
  8
0
 62
     0
100
AcDbVertex
100
AcDbPolyFaceMeshVertex
 10
5.500000000000012
 20
0.0000000000000001
 30
5.500000000000002
 70
   192
  0
VERTEX
  5
218
330
214
100
AcDbEntity
  8
0
 62
     0
100
AcDbVertex
100
AcDbPolyFaceMeshVertex
 10
69.49999999999994
 20
1.0
 30
5.500000000000002
 70
   192
  0
VERTEX
  5
219
330
214
100
AcDbEntity
  8
0
 62
     0
100
AcDbFaceRecord
 10
0.0
 20
0.0
 30
0.0
 70
   128
 71
    -1
 72
     2
 73
     3
  0
VERTEX
  5
21A
330
214
100
AcDbEntity
  8
0
 62
     0
100
AcDbFaceRecord
 10
0.0
 20
0.0
 30
0.0
 70
   128
 71
    -2
 72
     1
 73
     4
  0
SEQEND
  5
21B
330
214
100
AcDbEntity
  8
0
 62
     0
  0
LINE
  5
21C
330
77
100
AcDbEntity
  8
0
 62
     0
100
AcDbLine
 10
69.49999999999994
 20
0.0000000000000001
 30
5.500000000000002
 11
5.500000000000012
 21
0.0000000000000001
 31
5.500000000000002
  0
LINE
  5
21D
330
77
100
AcDbEntity
  8
0
 62
     0
100
AcDbLine
 10
69.49999999999994
 20
0.0000000000000001
 30
5.500000000000002
 11
69.49999999999994
 21
1.0
 31
5.500000000000002
  0
LINE
  5
21E
330
77
100
AcDbEntity
  8
0
 62
     0
100
AcDbLine
 10
69.49999999999994
 20
1.0
 30
5.500000000000002
 11
5.500000000000012
 21
1.0
 31
5.500000000000002
  0
LINE
  5
21F
330
77
100
AcDbEntity
  8
0
 62
     0
100
AcDbLine
 10
5.500000000000012
 20
0.0000000000000001
 30
5.500000000000002
 11
5.500000000000012
 21
1.0
 31
5.500000000000002
  0
POLYLINE
  5
220
330
77
100
AcDbEntity
  8
0
 62
     0
100
AcDbPolyFaceMesh
 66
     1
 10
0.0
 20
0.0
 30
0.0
 70
    64
 71
     4
 72
     2
1001
ACAD_MATERIAL_MAPPER
1070
     1
1070
     1
1070
     1
1011
0.0
1021
0.0
1031
0.0000000000000012
1011
0.0
1021
-2.54
1031
0.0000000000000012
1011
0.0
1021
0.0
1031
2.540000000000001
1011
1.0
1021
0.0
1031
0.0000000000000012
  0
VERTEX
  5
221
330
220
100
AcDbEntity
  8
0
 62
     0
100
AcDbVertex
100
AcDbPolyFaceMeshVertex
 10
69.49999999999994
 20
1.0
 30
83.00000000000001
 70
   192
  0
VERTEX
  5
222
330
220
100
AcDbEntity
  8
0
 62
     0
100
AcDbVertex
100
AcDbPolyFaceMeshVertex
 10
69.49999999999994
 20
0.0000000000000001
 30
5.500000000000002
 70
   192
  0
VERTEX
  5
223
330
220
100
AcDbEntity
  8
0
 62
     0
100
AcDbVertex
100
AcDbPolyFaceMeshVertex
 10
69.49999999999994
 20
0.0000000000000001
 30
83.00000000000001
 70
   192
  0
VERTEX
  5
224
330
220
100
AcDbEntity
  8
0
 62
     0
100
AcDbVertex
100
AcDbPolyFaceMeshVertex
 10
69.49999999999994
 20
1.0
 30
5.500000000000002
 70
   192
  0
VERTEX
  5
225
330
220
100
AcDbEntity
  8
0
 62
     0
100
AcDbFaceRecord
 10
0.0
 20
0.0
 30
0.0
 70
   128
 71
    -1
 72
     2
 73
     3
  0
VERTEX
  5
226
330
220
100
AcDbEntity
  8
0
 62
     0
100
AcDbFaceRecord
 10
0.0
 20
0.0
 30
0.0
 70
   128
 71
    -2
 72
     1
 73
     4
  0
SEQEND
  5
227
330
220
100
AcDbEntity
  8
0
 62
     0
  0
LINE
  5
228
330
77
100
AcDbEntity
  8
0
 62
     0
100
AcDbLine
 10
69.49999999999994
 20
0.0000000000000001
 30
83.00000000000001
 11
69.49999999999994
 21
0.0000000000000001
 31
5.500000000000002
  0
LINE
  5
229
330
77
100
AcDbEntity
  8
0
 62
     0
100
AcDbLine
 10
69.49999999999994
 20
0.0000000000000001
 30
83.00000000000001
 11
69.49999999999994
 21
1.0
 31
83.00000000000001
  0
LINE
  5
22A
330
77
100
AcDbEntity
  8
0
 62
     0
100
AcDbLine
 10
69.49999999999994
 20
1.0
 30
83.00000000000001
 11
69.49999999999994
 21
1.0
 31
5.500000000000002
  0
LINE
  5
22B
330
77
100
AcDbEntity
  8
0
 62
     0
100
AcDbLine
 10
69.49999999999994
 20
0.0000000000000001
 30
5.500000000000002
 11
69.49999999999994
 21
1.0
 31
5.500000000000002
  0
ENDBLK
  5
79
330
77
100
AcDbEntity
  8
0
100
AcDbBlockEnd
  0
BLOCK
  5
7B
330
7A
100
AcDbEntity
  8
0
100
AcDbBlockBegin
  2
GRUPO_1
 70
     0
 10
0.0
 20
0.0
 30
0.0
  3
GRUPO_1
  1

  0
POLYLINE
  5
22D
330
7A
100
AcDbEntity
  8
0
 62
     7
100
AcDbPolyFaceMesh
 66
     1
 10
0.0
 20
0.0
 30
0.0
 70
    64
 71
     4
 72
     2
1001
ACAD_MATERIAL_MAPPER
1070
     1
1070
     1
1070
     1
1011
0.0
1021
0.0
1031
0.0
1011
0.0
1021
-2.54
1031
0.0
1011
0.0
1021
0.0
1031
2.54
1011
1.0
1021
0.0
1031
0.0
  0
VERTEX
  5
22E
330
22D
100
AcDbEntity
  8
0
 62
     7
100
AcDbVertex
100
AcDbPolyFaceMeshVertex
 10
0.0
 20
0.3999999999999993
 30
109.0
 70
   192
  0
VERTEX
  5
22F
330
22D
100
AcDbEntity
  8
0
 62
     7
100
AcDbVertex
100
AcDbPolyFaceMeshVertex
 10
0.0
 20
0.0
 30
0.0
 70
   192
  0
VERTEX
  5
230
330
22D
100
AcDbEntity
  8
0
 62
     7
100
AcDbVertex
100
AcDbPolyFaceMeshVertex
 10
0.0
 20
0.0
 30
109.0
 70
   192
  0
VERTEX
  5
231
330
22D
100
AcDbEntity
  8
0
 62
     7
100
AcDbVertex
100
AcDbPolyFaceMeshVertex
 10
0.0
 20
0.3999999999999993
 30
0.0
 70
   192
  0
VERTEX
  5
232
330
22D
100
AcDbEntity
  8
0
 62
     7
100
AcDbFaceRecord
 10
0.0
 20
0.0
 30
0.0
 70
   128
 71
    -1
 72
     2
 73
     3
  0
VERTEX
  5
233
330
22D
100
AcDbEntity
  8
0
 62
     7
100
AcDbFaceRecord
 10
0.0
 20
0.0
 30
0.0
 70
   128
 71
    -2
 72
     1
 73
     4
  0
SEQEND
  5
234
330
22D
100
AcDbEntity
  8
0
 62
     7
  0
LINE
  5
235
330
7A
100
AcDbEntity
  8
0
 62
     0
100
AcDbLine
 10
0.0
 20
0.0
 30
0.0
 11
0.0
 21
0.3999999999999993
 31
0.0
  0
LINE
  5
236
330
7A
100
AcDbEntity
  8
0
 62
     0
100
AcDbLine
 10
0.0
 20
0.0
 30
0.0
 11
0.0
 21
0.0
 31
109.0
  0
LINE
  5
237
330
7A
100
AcDbEntity
  8
0
 62
     0
100
AcDbLine
 10
0.0
 20
0.0
 30
109.0
 11
0.0
 21
0.3999999999999993
 31
109.0
  0
LINE
  5
238
330
7A
100
AcDbEntity
  8
0
 62
     0
100
AcDbLine
 10
0.0
 20
0.3999999999999993
 30
0.0
 11
0.0
 21
0.3999999999999993
 31
109.0
  0
POLYLINE
  5
239
330
7A
100
AcDbEntity
  8
0
 62
     7
100
AcDbPolyFaceMesh
 66
     1
 10
0.0
 20
0.0
 30
0.0
 70
    64
 71
     4
 72
     2
1001
ACAD_MATERIAL_MAPPER
1070
     1
1070
     1
1070
     1
1011
0.0
1021
0.0
1031
0.0
1011
0.0
1021
2.54
1031
0.0
1011
0.0
1021
0.0
1031
2.54
1011
1.0
1021
0.0
1031
0.0
  0
VERTEX
  5
23A
330
239
100
AcDbEntity
  8
0
 62
     7
100
AcDbVertex
100
AcDbPolyFaceMeshVertex
 10
63.99999999999996
 20
0.3999999999999993
 30
0.0
 70
   192
  0
VERTEX
  5
23B
330
239
100
AcDbEntity
  8
0
 62
     7
100
AcDbVertex
100
AcDbPolyFaceMeshVertex
 10
63.99999999999996
 20
0.0
 30
109.0
 70
   192
  0
VERTEX
  5
23C
330
239
100
AcDbEntity
  8
0
 62
     7
100
AcDbVertex
100
AcDbPolyFaceMeshVertex
 10
63.99999999999996
 20
0.0
 30
0.0
 70
   192
  0
VERTEX
  5
23D
330
239
100
AcDbEntity
  8
0
 62
     7
100
AcDbVertex
100
AcDbPolyFaceMeshVertex
 10
63.99999999999996
 20
0.3999999999999993
 30
109.0
 70
   192
  0
VERTEX
  5
23E
330
239
100
AcDbEntity
  8
0
 62
     7
100
AcDbFaceRecord
 10
0.0
 20
0.0
 30
0.0
 70
   128
 71
    -1
 72
     2
 73
     3
  0
VERTEX
  5
23F
330
239
100
AcDbEntity
  8
0
 62
     7
100
AcDbFaceRecord
 10
0.0
 20
0.0
 30
0.0
 70
   128
 71
    -2
 72
     1
 73
     4
  0
SEQEND
  5
240
330
239
100
AcDbEntity
  8
0
 62
     7
  0
LINE
  5
241
330
7A
100
AcDbEntity
  8
0
 62
     0
100
AcDbLine
 10
63.99999999999996
 20
0.3999999999999993
 30
0.0
 11
63.99999999999996
 21
0.0
 31
0.0
  0
LINE
  5
242
330
7A
100
AcDbEntity
  8
0
 62
     0
100
AcDbLine
 10
63.99999999999996
 20
0.3999999999999993
 30
0.0
 11
63.99999999999996
 21
0.3999999999999993
 31
109.0
  0
LINE
  5
243
330
7A
100
AcDbEntity
  8
0
 62
     0
100
AcDbLine
 10
63.99999999999996
 20
0.3999999999999993
 30
109.0
 11
63.99999999999996
 21
0.0
 31
109.0
  0
LINE
  5
244
330
7A
100
AcDbEntity
  8
0
 62
     0
100
AcDbLine
 10
63.99999999999996
 20
0.0
 30
0.0
 11
63.99999999999996
 21
0.0
 31
109.0
  0
POLYLINE
  5
245
330
7A
100
AcDbEntity
  8
0
 62
     7
100
AcDbPolyFaceMesh
 66
     1
 10
0.0
 20
0.0
 30
0.0
 70
    64
 71
     4
 72
     2
1001
ACAD_MATERIAL_MAPPER
1070
     1
1070
     1
1070
     1
1011
0.0
1021
0.0
1031
0.0
1011
-2.54
1021
0.0
1031
0.0
1011
0.0
1021
2.54
1031
0.0
1011
0.0
1021
0.0
1031
1.0
  0
VERTEX
  5
246
330
245
100
AcDbEntity
  8
0
 62
     7
100
AcDbVertex
100
AcDbPolyFaceMeshVertex
 10
63.99999999999996
 20
0.3999999999999993
 30
0.0
 70
   192
  0
VERTEX
  5
247
330
245
100
AcDbEntity
  8
0
 62
     7
100
AcDbVertex
100
AcDbPolyFaceMeshVertex
 10
0.0
 20
0.0
 30
0.0
 70
   192
  0
VERTEX
  5
248
330
245
100
AcDbEntity
  8
0
 62
     7
100
AcDbVertex
100
AcDbPolyFaceMeshVertex
 10
0.0
 20
0.3999999999999993
 30
0.0
 70
   192
  0
VERTEX
  5
249
330
245
100
AcDbEntity
  8
0
 62
     7
100
AcDbVertex
100
AcDbPolyFaceMeshVertex
 10
63.99999999999996
 20
0.0
 30
0.0
 70
   192
  0
VERTEX
  5
24A
330
245
100
AcDbEntity
  8
0
 62
     7
100
AcDbFaceRecord
 10
0.0
 20
0.0
 30
0.0
 70
   128
 71
    -1
 72
     2
 73
     3
  0
VERTEX
  5
24B
330
245
100
AcDbEntity
  8
0
 62
     7
100
AcDbFaceRecord
 10
0.0
 20
0.0
 30
0.0
 70
   128
 71
    -2
 72
     1
 73
     4
  0
SEQEND
  5
24C
330
245
100
AcDbEntity
  8
0
 62
     7
  0
LINE
  5
24D
330
7A
100
AcDbEntity
  8
0
 62
     0
100
AcDbLine
 10
63.99999999999996
 20
0.0
 30
0.0
 11
0.0
 21
0.0
 31
0.0
  0
LINE
  5
24E
330
7A
100
AcDbEntity
  8
0
 62
     0
100
AcDbLine
 10
0.0
 20
0.0
 30
0.0
 11
0.0
 21
0.3999999999999993
 31
0.0
  0
LINE
  5
24F
330
7A
100
AcDbEntity
  8
0
 62
     0
100
AcDbLine
 10
0.0
 20
0.3999999999999993
 30
0.0
 11
63.99999999999996
 21
0.3999999999999993
 31
0.0
  0
LINE
  5
250
330
7A
100
AcDbEntity
  8
0
 62
     0
100
AcDbLine
 10
63.99999999999996
 20
0.3999999999999993
 30
0.0
 11
63.99999999999996
 21
0.0
 31
0.0
  0
POLYLINE
  5
251
330
7A
100
AcDbEntity
  8
0
 62
     7
100
AcDbPolyFaceMesh
 66
     1
 10
0.0
 20
0.0
 30
0.0
 70
    64
 71
     4
 72
     2
1001
ACAD_MATERIAL_MAPPER
1070
     1
1070
     1
1070
     1
1011
0.0
1021
0.0
1031
0.0
1011
2.54
1021
0.0
1031
0.0
1011
0.0
1021
2.54
1031
0.0
1011
0.0
1021
0.0
1031
1.0
  0
VERTEX
  5
252
330
251
100
AcDbEntity
  8
0
 62
     7
100
AcDbVertex
100
AcDbPolyFaceMeshVertex
 10
63.99999999999996
 20
0.0
 30
109.0
 70
   192
  0
VERTEX
  5
253
330
251
100
AcDbEntity
  8
0
 62
     7
100
AcDbVertex
100
AcDbPolyFaceMeshVertex
 10
0.0
 20
0.3999999999999993
 30
109.0
 70
   192
  0
VERTEX
  5
254
330
251
100
AcDbEntity
  8
0
 62
     7
100
AcDbVertex
100
AcDbPolyFaceMeshVertex
 10
0.0
 20
0.0
 30
109.0
 70
   192
  0
VERTEX
  5
255
330
251
100
AcDbEntity
  8
0
 62
     7
100
AcDbVertex
100
AcDbPolyFaceMeshVertex
 10
63.99999999999996
 20
0.3999999999999993
 30
109.0
 70
   192
  0
VERTEX
  5
256
330
251
100
AcDbEntity
  8
0
 62
     7
100
AcDbFaceRecord
 10
0.0
 20
0.0
 30
0.0
 70
   128
 71
    -1
 72
     2
 73
     3
  0
VERTEX
  5
257
330
251
100
AcDbEntity
  8
0
 62
     7
100
AcDbFaceRecord
 10
0.0
 20
0.0
 30
0.0
 70
   128
 71
    -2
 72
     1
 73
     4
  0
SEQEND
  5
258
330
251
100
AcDbEntity
  8
0
 62
     7
  0
LINE
  5
259
330
7A
100
AcDbEntity
  8
0
 62
     0
100
AcDbLine
 10
63.99999999999996
 20
0.0
 30
109.0
 11
0.0
 21
0.0
 31
109.0
  0
LINE
  5
25A
330
7A
100
AcDbEntity
  8
0
 62
     0
100
AcDbLine
 10
63.99999999999996
 20
0.3999999999999993
 30
109.0
 11
63.99999999999996
 21
0.0
 31
109.0
  0
LINE
  5
25B
330
7A
100
AcDbEntity
  8
0
 62
     0
100
AcDbLine
 10
0.0
 20
0.3999999999999993
 30
109.0
 11
63.99999999999996
 21
0.3999999999999993
 31
109.0
  0
LINE
  5
25C
330
7A
100
AcDbEntity
  8
0
 62
     0
100
AcDbLine
 10
0.0
 20
0.0
 30
109.0
 11
0.0
 21
0.3999999999999993
 31
109.0
  0
POLYLINE
  5
25D
330
7A
100
AcDbEntity
  8
0
 62
     7
100
AcDbPolyFaceMesh
 66
     1
 10
0.0
 20
0.0
 30
0.0
 70
    64
 71
     4
 72
     2
1001
ACAD_MATERIAL_MAPPER
1070
     1
1070
     1
1070
     1
1011
0.0
1021
0.0
1031
0.0
1011
2.54
1021
0.0
1031
0.0
1011
0.0
1021
0.0
1031
2.54
1011
0.0
1021
1.0
1031
0.0
  0
VERTEX
  5
25E
330
25D
100
AcDbEntity
  8
0
 62
     7
100
AcDbVertex
100
AcDbPolyFaceMeshVertex
 10
63.99999999999996
 20
0.0
 30
109.0
 70
   192
  0
VERTEX
  5
25F
330
25D
100
AcDbEntity
  8
0
 62
     7
100
AcDbVertex
100
AcDbPolyFaceMeshVertex
 10
0.0
 20
0.0
 30
0.0
 70
   192
  0
VERTEX
  5
260
330
25D
100
AcDbEntity
  8
0
 62
     7
100
AcDbVertex
100
AcDbPolyFaceMeshVertex
 10
63.99999999999996
 20
0.0
 30
0.0
 70
   192
  0
VERTEX
  5
261
330
25D
100
AcDbEntity
  8
0
 62
     7
100
AcDbVertex
100
AcDbPolyFaceMeshVertex
 10
0.0
 20
0.0
 30
109.0
 70
   192
  0
VERTEX
  5
262
330
25D
100
AcDbEntity
  8
0
 62
     7
100
AcDbFaceRecord
 10
0.0
 20
0.0
 30
0.0
 70
   128
 71
    -1
 72
     2
 73
     3
  0
VERTEX
  5
263
330
25D
100
AcDbEntity
  8
0
 62
     7
100
AcDbFaceRecord
 10
0.0
 20
0.0
 30
0.0
 70
   128
 71
    -2
 72
     1
 73
     4
  0
SEQEND
  5
264
330
25D
100
AcDbEntity
  8
0
 62
     7
  0
LINE
  5
265
330
7A
100
AcDbEntity
  8
0
 62
     0
100
AcDbLine
 10
63.99999999999996
 20
0.0
 30
0.0
 11
0.0
 21
0.0
 31
0.0
  0
LINE
  5
266
330
7A
100
AcDbEntity
  8
0
 62
     0
100
AcDbLine
 10
63.99999999999996
 20
0.0
 30
0.0
 11
63.99999999999996
 21
0.0
 31
109.0
  0
LINE
  5
267
330
7A
100
AcDbEntity
  8
0
 62
     0
100
AcDbLine
 10
63.99999999999996
 20
0.0
 30
109.0
 11
0.0
 21
0.0
 31
109.0
  0
LINE
  5
268
330
7A
100
AcDbEntity
  8
0
 62
     0
100
AcDbLine
 10
0.0
 20
0.0
 30
0.0
 11
0.0
 21
0.0
 31
109.0
  0
POLYLINE
  5
269
330
7A
100
AcDbEntity
  8
0
 62
     7
100
AcDbPolyFaceMesh
 66
     1
 10
0.0
 20
0.0
 30
0.0
 70
    64
 71
     4
 72
     2
1001
ACAD_MATERIAL_MAPPER
1070
     1
1070
     1
1070
     1
1011
0.0
1021
0.0
1031
0.0
1011
-2.54
1021
0.0
1031
0.0
1011
0.0
1021
0.0
1031
2.54
1011
0.0
1021
1.0
1031
0.0
  0
VERTEX
  5
26A
330
269
100
AcDbEntity
  8
0
 62
     7
100
AcDbVertex
100
AcDbPolyFaceMeshVertex
 10
0.0
 20
0.3999999999999993
 30
109.0
 70
   192
  0
VERTEX
  5
26B
330
269
100
AcDbEntity
  8
0
 62
     7
100
AcDbVertex
100
AcDbPolyFaceMeshVertex
 10
63.99999999999996
 20
0.3999999999999993
 30
0.0
 70
   192
  0
VERTEX
  5
26C
330
269
100
AcDbEntity
  8
0
 62
     7
100
AcDbVertex
100
AcDbPolyFaceMeshVertex
 10
0.0
 20
0.3999999999999993
 30
0.0
 70
   192
  0
VERTEX
  5
26D
330
269
100
AcDbEntity
  8
0
 62
     7
100
AcDbVertex
100
AcDbPolyFaceMeshVertex
 10
63.99999999999996
 20
0.3999999999999993
 30
109.0
 70
   192
  0
VERTEX
  5
26E
330
269
100
AcDbEntity
  8
0
 62
     7
100
AcDbFaceRecord
 10
0.0
 20
0.0
 30
0.0
 70
   128
 71
    -1
 72
     2
 73
     3
  0
VERTEX
  5
26F
330
269
100
AcDbEntity
  8
0
 62
     7
100
AcDbFaceRecord
 10
0.0
 20
0.0
 30
0.0
 70
   128
 71
    -2
 72
     1
 73
     4
  0
SEQEND
  5
270
330
269
100
AcDbEntity
  8
0
 62
     7
  0
LINE
  5
271
330
7A
100
AcDbEntity
  8
0
 62
     0
100
AcDbLine
 10
0.0
 20
0.3999999999999993
 30
0.0
 11
63.99999999999996
 21
0.3999999999999993
 31
0.0
  0
LINE
  5
272
330
7A
100
AcDbEntity
  8
0
 62
     0
100
AcDbLine
 10
0.0
 20
0.3999999999999993
 30
0.0
 11
0.0
 21
0.3999999999999993
 31
109.0
  0
LINE
  5
273
330
7A
100
AcDbEntity
  8
0
 62
     0
100
AcDbLine
 10
0.0
 20
0.3999999999999993
 30
109.0
 11
63.99999999999996
 21
0.3999999999999993
 31
109.0
  0
LINE
  5
274
330
7A
100
AcDbEntity
  8
0
 62
     0
100
AcDbLine
 10
63.99999999999996
 20
0.3999999999999993
 30
0.0
 11
63.99999999999996
 21
0.3999999999999993
 31
109.0
  0
ENDBLK
  5
7C
330
7A
100
AcDbEntity
  8
0
100
AcDbBlockEnd
  0
BLOCK
  5
7E
330
7D
100
AcDbEntity
  8
0
100
AcDbBlockBegin
  2
GRUPO_3
 70
     0
 10
0.0
 20
0.0
 30
0.0
  3
GRUPO_3
  1

  0
INSERT
  5
275
330
7D
100
AcDbEntity
  8
0
 62
     0
100
AcDbBlockReference
 66
     1
  2
GRUPO_1
 10
5.499999999999977
 20
2.550000000000012
 30
88.5
  0
ATTRIB
  5
276
330
275
100
AcDbEntity
  8
0
100
AcDbText
 10
0.0
 20
0.0
 30
0.0
 40
1.0
  1

100
AcDbAttribute
  2
Skp_GroupInstanceName
 70
     0
  0
SEQEND
  5
277
330
275
100
AcDbEntity
  8
0
 62
     0
  0
INSERT
  5
278
330
7D
100
AcDbEntity
  8
0
 62
     0
100
AcDbBlockReference
 66
     1
  2
GRUPO_2
 10
0.0
 20
0.0
 30
0.0
  0
ATTRIB
  5
279
330
278
100
AcDbEntity
  8
0
100
AcDbText
 10
0.0
 20
0.0
 30
0.0
 40
1.0
  1

100
AcDbAttribute
  2
Skp_GroupInstanceName
 70
     0
  0
SEQEND
  5
27A
330
278
100
AcDbEntity
  8
0
 62
     0
  0
ENDBLK
  5
7F
330
7D
100
AcDbEntity
  8
0
100
AcDbBlockEnd
  0
ENDSEC
  0
SECTION
  2
ENTITIES
  0
LINE
  5
27B
330
1F
100
AcDbEntity
  8
P_LISTONES
 62
     5
100
AcDbLine
 10
563.0654031292304
 20
104.0021410767628
 30
0.0
 11
563.1305261922201
 21
104.0085551386276
 31
0.0
  0
LINE
  5
27C
330
1F
100
AcDbEntity
  8
P_LISTONES
 62
     5
100
AcDbLine
 10
563.2588190451025
 20
104.0340741737115
 30
0.0
 11
563.321439465303
 21
104.0530698705061
 31
0.0
  0
LINE
  5
27D
330
1F
100
AcDbEntity
  8
P_LISTONES
 62
     5
100
AcDbLine
 10
563.1950903220165
 20
104.0192147195975
 30
0.0
 11
563.2588190451025
 21
104.0340741737115
 31
0.0
  0
LINE
  5
27E
330
1F
100
AcDbEntity
  8
P_LISTONES
 62
     5
100
AcDbLine
 10
563.1305261922201
 20
104.0085551386276
 30
0.0
 11
563.1950903220165
 21
104.0192147195975
 31
0.0
  0
LINE
  5
27F
330
1F
100
AcDbEntity
  8
P_LISTONES
 62
     5
100
AcDbLine
 10
563.0000000000001
 20
104.0000000000009
 30
0.0
 11
563.0654031292304
 21
104.0021410767628
 31
0.0
  0
INSERT
  5
280
330
1F
100
AcDbEntity
  8
0
 62
     0
100
AcDbBlockReference
 66
     1
  2
GRUPO_3
 10
0.0
 20
0.0
 30
0.0
  0
ATTRIB
  5
281
330
280
100
AcDbEntity
  8
0
100
AcDbText
 10
0.0
 20
0.0
 30
0.0
 40
1.0
  1

100
AcDbAttribute
  2
Skp_GroupInstanceName
 70
     0
  0
SEQEND
  5
282
330
280
100
AcDbEntity
  8
0
 62
     0
  0
INSERT
  5
283
330
1F
100
AcDbEntity
  8
0
 62
     0
100
AcDbBlockReference
 66
     1
  2
GRUPO_3
 10
74.99999999999999
 20
0.0000000000000001
 30
0.0
  0
ATTRIB
  5
284
330
283
100
AcDbEntity
  8
0
100
AcDbText
 10
0.0
 20
0.0
 30
0.0
 40
1.0
  1

100
AcDbAttribute
  2
Skp_GroupInstanceName
 70
     0
  0
SEQEND
  5
285
330
283
100
AcDbEntity
  8
0
 62
     0
  0
ENDSEC
  0
SECTION
  2
OBJECTS
  0
DICTIONARY
  5
C
330
0
100
AcDbDictionary
  3
ACAD_GROUP
350
D
  3
ACAD_LAYOUT
350
1A
  3
ACAD_MATERIAL
350
43
  3
ACAD_MLEADERSTYLE
350
6B
  3
ACAD_MLINESTYLE
350
17
  3
ACAD_PLOTSETTINGS
350
19
  3
ACAD_SCALELIST
350
47
  3
ACAD_VISUALSTYLE
350
2A
  3
ACDBHEADERROUNDTRIPXREC
350
286
  3
ACDBVARIABLEDICTIONARY
350
2A7
  0
DICTIONARY
  5
2AE
330
8
100
AcDbDictionary
280
     1
  3
ACAD_XREC_ROUNDTRIP
360
2AF
  0
DICTIONARY
  5
D
102
{ACAD_REACTORS
330
C
102
}
330
C
100
AcDbDictionary
  0
DICTIONARY
  5
1A
102
{ACAD_REACTORS
330
C
102
}
330
C
100
AcDbDictionary
  0
DICTIONARY
  5
43
102
{ACAD_REACTORS
330
C
102
}
330
C
100
AcDbDictionary
  3
BYBLOCK
350
45
  3
BYLAYER
350
44
  3
GLOBAL
350
46
  3
MATERIAL10_COPIA
350
22C
  3
_AUTO_1
350
80
  0
DICTIONARY
  5
6B
102
{ACAD_REACTORS
330
C
102
}
330
C
100
AcDbDictionary
  3
STANDARD
350
6C
  0
DICTIONARY
  5
17
102
{ACAD_REACTORS
330
C
102
}
330
C
100
AcDbDictionary
  3
STANDARD
350
18
  0
DICTIONARY
  5
19
102
{ACAD_REACTORS
330
C
102
}
330
C
100
AcDbDictionary
  0
DICTIONARY
  5
47
102
{ACAD_REACTORS
330
C
102
}
330
C
100
AcDbDictionary
  3
A0
350
48
  3
A1
350
49
  3
A2
350
4A
  3
A3
350
4B
  3
A4
350
4C
  3
A5
350
4D
  3
A6
350
4E
  3
A7
350
4F
  3
A8
350
50
  3
A9
350
51
  3
B0
350
52
  3
B1
350
53
  3
B2
350
54
  3
B3
350
55
  3
B4
350
56
  3
B5
350
57
  3
B6
350
58
  3
B7
350
59
  3
B8
350
5A
  3
B9
350
5B
  3
C0
350
5C
  3
C1
350
5D
  3
C2
350
5E
  3
C3
350
5F
  3
C4
350
60
  3
C5
350
61
  3
C6
350
62
  3
C7
350
63
  3
C8
350
64
  3
C9
350
65
  3
D0
350
66
  3
D1
350
67
  3
D2
350
68
  0
DICTIONARY
  5
2A
102
{ACAD_REACTORS
330
C
102
}
330
C
100
AcDbDictionary
  3
2DWIREFRAME
350
2F
  3
BASIC
350
32
  3
BRIGHTEN
350
36
  3
COLORCHANGE
350
3A
  3
CONCEPTUAL
350
34
  3
DIM
350
35
  3
EDGECOLOROFF
350
3D
  3
FACEPATTERN
350
39
  3
FLAT
350
2B
  3
FLATWITHEDGES
350
2C
  3
GOURAUD
350
2D
  3
GOURAUDWITHEDGES
350
2E
  3
HIDDEN
350
31
  3
JITTEROFF
350
3B
  3
LINEPATTERN
350
38
  3
OVERHANGOFF
350
3C
  3
REALISTIC
350
33
  3
SHADED
350
42
  3
SHADED_WITH_EDGES
350
41
  3
SHADES_OF_GRAY
350
3E
  3
SKETCHY
350
3F
  3
THICKEN
350
37
  3
WIREFRAME
350
30
  3
X-RAY
350
40
  0
DICTIONARY
  5
286
102
{ACAD_REACTORS
330
C
102
}
330
C
100
AcDbDictionary
  3
CEPSNID
350
290
  3
CEPSNTYPE
350
28F
  3
DIMSTYLEDATA
350
2A6
  3
FINGERPRINTGUID
350
291
  3
HYPERLINKBASE
350
289
  3
INSUNITS
350
28E
  3
LAYOUTDICT
350
28B
  3
LWETCUNION
350
28D
  3
PLOTSETDICT
350
28C
  3
PSVPSCALE
350
293
  3
PUCSBASE
350
296
  3
PUCSORGBACK
350
29C
  3
PUCSORGBOTTOM
350
298
  3
PUCSORGFRONT
350
29B
  3
PUCSORGLEFT
350
299
  3
PUCSORGRIGHT
350
29A
  3
PUCSORGTOP
350
297
  3
PUCSORTHOREF
350
294
  3
PUCSORTHOVIEW
350
295
  3
STYLESHEET
350
28A
  3
TSTACKALIGN
350
287
  3
TSTACKSIZE
350
288
  3
UCSBASE
350
29F
  3
UCSORGBACK
350
2A5
  3
UCSORGBOTTOM
350
2A1
  3
UCSORGFRONT
350
2A4
  3
UCSORGLEFT
350
2A2
  3
UCSORGRIGHT
350
2A3
  3
UCSORGTOP
350
2A0
  3
UCSORTHOREF
350
29D
  3
UCSORTHOVIEW
350
29E
  3
VERSIONGUID
350
292
  0
DICTIONARY
  5
2A7
102
{ACAD_REACTORS
330
C
102
}
330
C
100
AcDbDictionary
  3
CANNOSCALE
350
2B0
  3
CMLEADERSTYLE
350
2A9
  3
CTABLESTYLE
350
2A8
  3
DIMASSOC
350
2AC
  3
HIDETEXT
350
2AD
  3
MSLTSCALE
350
2B1
  0
XRECORD
  5
2AF
102
{ACAD_REACTORS
330
2AE
102
}
330
2AE
100
AcDbXrecord
102
VTR_0.000_0.000_1.000_1.000_VISUALSTYLE
340
2F
102
VTR_0.000_0.000_1.000_1.000_GRIDDISPLAY
 70
     3
102
VTR_0.000_0.000_1.000_1.000_GRIDMAJOR
 70
     5
102
VTR_0.000_0.000_1.000_1.000_DEFAULTLIGHTING
280
     1
102
VTR_0.000_0.000_1.000_1.000_DEFAULTLIGHTINGTYPE
 70
     1
102
VTR_0.000_0.000_1.000_1.000_BRIGHTNESS
141
0.0
102
VTR_0.000_0.000_1.000_1.000_CONTRAST
142
0.0
  0
MATERIAL
  5
45
102
{ACAD_REACTORS
330
43
102
}
102
{ACAD_XDICTIONARY
360
2B4
102
}
330
43
100
AcDbMaterial
  1
BYBLOCK
  0
MATERIAL
  5
44
102
{ACAD_REACTORS
330
43
102
}
102
{ACAD_XDICTIONARY
360
2B2
102
}
330
43
100
AcDbMaterial
  1
BYLAYER
  0
MATERIAL
  5
46
102
{ACAD_REACTORS
330
43
102
}
102
{ACAD_XDICTIONARY
360
2B6
102
}
330
43
100
AcDbMaterial
  1
GLOBAL
  0
MATERIAL
  5
22C
102
{ACAD_REACTORS
330
43
102
}
102
{ACAD_XDICTIONARY
360
2BA
102
}
330
43
100
AcDbMaterial
  1
MATERIAL10_COPIA
140
0.5
  0
MATERIAL
  5
80
102
{ACAD_REACTORS
330
43
102
}
102
{ACAD_XDICTIONARY
360
2B8
102
}
330
43
100
AcDbMaterial
  1
_AUTO_1
  0
ACAD_PROXY_OBJECT
  5
6C
102
{ACAD_REACTORS
330
6B
102
}
330
6B
100
AcDbProxyObject
 90
      499
 91
      505
 93
      610
310
40901902A4063FBFFFFFE056BD1B81E855B9FC0AD7A3703D0AD73F4214DD185B99185C9900AD7A3703D0AC73F90141901A02B5E8DC0F42B1CFC02B5E8DC0F42B1CFE5764000000000000300FC0
340
14
340
0
340
11
340
0
 94
        0
1001
ACAD_MLEADERVER
1070
     2
  0
MLINESTYLE
  5
18
102
{ACAD_REACTORS
330
17
102
}
330
17
100
AcDbMlineStyle
  2
Standard
 70
     0
  3

 62
   256
 51
90.0
 52
90.0
 71
     2
 49
0.5
 62
   256
  6
BYLAYER
 49
-0.5
 62
   256
  6
BYLAYER
  0
ACAD_PROXY_OBJECT
  5
48
102
{ACAD_REACTORS
330
47
102
}
330
47
100
AcDbProxyObject
 90
      499
 91
      503
 93
       41
310
903313A31580
  0
ACAD_PROXY_OBJECT
  5
49
102
{ACAD_REACTORS
330
47
102
}
330
47
100
AcDbProxyObject
 90
      499
 91
      503
 93
      105
310
903313A324000000000000004000
  0
ACAD_PROXY_OBJECT
  5
4A
102
{ACAD_REACTORS
330
47
102
}
330
47
100
AcDbProxyObject
 90
      499
 91
      503
 93
      105
310
903313A344000000000000104000
  0
ACAD_PROXY_OBJECT
  5
4B
102
{ACAD_REACTORS
330
47
102
}
330
47
100
AcDbProxyObject
 90
      499
 91
      503
 93
      105
310
903313A354000000000000144000
  0
ACAD_PROXY_OBJECT
  5
4C
102
{ACAD_REACTORS
330
47
102
}
330
47
100
AcDbProxyObject
 90
      499
 91
      503
 93
      105
310
903313A384000000000000204000
  0
ACAD_PROXY_OBJECT
  5
4D
102
{ACAD_REACTORS
330
47
102
}
330
47
100
AcDbProxyObject
 90
      499
 91
      503
 93
      113
310
904313A31304000000000000244000
  0
ACAD_PROXY_OBJECT
  5
4E
102
{ACAD_REACTORS
330
47
102
}
330
47
100
AcDbProxyObject
 90
      499
 91
      503
 93
      113
310
904313A31364000000000000304000
  0
ACAD_PROXY_OBJECT
  5
4F
102
{ACAD_REACTORS
330
47
102
}
330
47
100
AcDbProxyObject
 90
      499
 91
      503
 93
      113
310
904313A32304000000000000344000
  0
ACAD_PROXY_OBJECT
  5
50
102
{ACAD_REACTORS
330
47
102
}
330
47
100
AcDbProxyObject
 90
      499
 91
      503
 93
      113
310
904313A333040000000000003E4000
  0
ACAD_PROXY_OBJECT
  5
51
102
{ACAD_REACTORS
330
47
102
}
330
47
100
AcDbProxyObject
 90
      499
 91
      503
 93
      113
310
904313A34304000000000000444000
  0
ACAD_PROXY_OBJECT
  5
52
102
{ACAD_REACTORS
330
47
102
}
330
47
100
AcDbProxyObject
 90
      499
 91
      503
 93
      113
310
904313A35304000000000000494000
  0
ACAD_PROXY_OBJECT
  5
53
102
{ACAD_REACTORS
330
47
102
}
330
47
100
AcDbProxyObject
 90
      499
 91
      503
 93
      121
310
905313A3130304000000000000594000
  0
ACAD_PROXY_OBJECT
  5
54
102
{ACAD_REACTORS
330
47
102
}
330
47
100
AcDbProxyObject
 90
      499
 91
      503
 93
      105
310
903323A310000000000000010100
  0
ACAD_PROXY_OBJECT
  5
55
102
{ACAD_REACTORS
330
47
102
}
330
47
100
AcDbProxyObject
 90
      499
 91
      503
 93
      105
310
903343A310000000000000410100
  0
ACAD_PROXY_OBJECT
  5
56
102
{ACAD_REACTORS
330
47
102
}
330
47
100
AcDbProxyObject
 90
      499
 91
      503
 93
      105
310
903383A310000000000000810100
  0
ACAD_PROXY_OBJECT
  5
57
102
{ACAD_REACTORS
330
47
102
}
330
47
100
AcDbProxyObject
 90
      499
 91
      503
 93
      113
310
90431303A310000000000000910100
  0
ACAD_PROXY_OBJECT
  5
58
102
{ACAD_REACTORS
330
47
102
}
330
47
100
AcDbProxyObject
 90
      499
 91
      503
 93
      121
310
9053130303A310000000000001650100
  0
ACAD_PROXY_OBJECT
  5
59
102
{ACAD_REACTORS
330
47
102
}
330
47
100
AcDbProxyObject
 90
      499
 91
      503
 93
      257
310
90E312F31323822203D2031272D3022000000000000200FC000000000000284000
  0
ACAD_PROXY_OBJECT
  5
5A
102
{ACAD_REACTORS
330
47
102
}
330
47
100
AcDbProxyObject
 90
      499
 91
      503
 93
      249
310
90D312F363422203D2031272D3022000000000000240FC000000000000284000
  0
ACAD_PROXY_OBJECT
  5
5B
102
{ACAD_REACTORS
330
47
102
}
330
47
100
AcDbProxyObject
 90
      499
 91
      503
 93
      249
310
90D312F333222203D2031272D3022000000000000280FC000000000000284000
  0
ACAD_PROXY_OBJECT
  5
5C
102
{ACAD_REACTORS
330
47
102
}
330
47
100
AcDbProxyObject
 90
      499
 91
      503
 93
      249
310
90D312F313622203D2031272D30220000000000002C0FC000000000000284000
  0
ACAD_PROXY_OBJECT
  5
5D
102
{ACAD_REACTORS
330
47
102
}
330
47
100
AcDbProxyObject
 90
      499
 91
      503
 93
      249
310
90D332F333222203D2031272D30220000000000002E0FC000000000000284000
  0
ACAD_PROXY_OBJECT
  5
5E
102
{ACAD_REACTORS
330
47
102
}
330
47
100
AcDbProxyObject
 90
      499
 91
      503
 93
      241
310
90C312F3822203D2031272D3022000000000000300FC000000000000284000
  0
ACAD_PROXY_OBJECT
  5
5F
102
{ACAD_REACTORS
330
47
102
}
330
47
100
AcDbProxyObject
 90
      499
 91
      503
 93
      249
310
90D332F313622203D2031272D3022000000000000320FC000000000000284000
  0
ACAD_PROXY_OBJECT
  5
60
102
{ACAD_REACTORS
330
47
102
}
330
47
100
AcDbProxyObject
 90
      499
 91
      503
 93
      241
310
90C312F3422203D2031272D3022000000000000340FC000000000000284000
  0
ACAD_PROXY_OBJECT
  5
61
102
{ACAD_REACTORS
330
47
102
}
330
47
100
AcDbProxyObject
 90
      499
 91
      503
 93
      241
310
90C332F3822203D2031272D3022000000000000360FC000000000000284000
  0
ACAD_PROXY_OBJECT
  5
62
102
{ACAD_REACTORS
330
47
102
}
330
47
100
AcDbProxyObject
 90
      499
 91
      503
 93
      241
310
90C312F3222203D2031272D3022000000000000380FC000000000000284000
  0
ACAD_PROXY_OBJECT
  5
63
102
{ACAD_REACTORS
330
47
102
}
330
47
100
AcDbProxyObject
 90
      499
 91
      503
 93
      241
310
90C332F3422203D2031272D30220000000000003A0FC000000000000284000
  0
ACAD_PROXY_OBJECT
  5
64
102
{ACAD_REACTORS
330
47
102
}
330
47
100
AcDbProxyObject
 90
      499
 91
      503
 93
      161
310
90A3122203D2031272D30224000000000000284000
  0
ACAD_PROXY_OBJECT
  5
65
102
{ACAD_REACTORS
330
47
102
}
330
47
100
AcDbProxyObject
 90
      499
 91
      503
 93
      257
310
90E312D312F3222203D2031272D30220000000000003E0FC000000000000284000
  0
ACAD_PROXY_OBJECT
  5
66
102
{ACAD_REACTORS
330
47
102
}
330
47
100
AcDbProxyObject
 90
      499
 91
      503
 93
      225
310
90A3322203D2031272D302200000000000002100000000000000284000
  0
ACAD_PROXY_OBJECT
  5
67
102
{ACAD_REACTORS
330
47
102
}
330
47
100
AcDbProxyObject
 90
      499
 91
      503
 93
      225
310
90A3622203D2031272D302200000000000006100000000000000284000
  0
ACAD_PROXY_OBJECT
  5
68
102
{ACAD_REACTORS
330
47
102
}
330
47
100
AcDbProxyObject
 90
      499
 91
      503
 93
      249
310
90D31272D3022203D2031272D30220000000000000A100000000000000284000
  0
ACAD_PROXY_OBJECT
  5
2F
102
{ACAD_REACTORS
330
2A
102
}
330
2A
100
AcDbProxyObject
 90
      499
 91
      501
 93
      436
310
42CC9915DA5C99599C985B595049028333333333333E33F0000000000000F90107901411070040501600405405064090741402480A0340
1001
ACAD
1000
AcDbSavedByObjectVersion
1070
     0
  0
ACAD_PROXY_OBJECT
  5
32
102
{ACAD_REACTORS
330
2A
102
}
330
2A
100
AcDbProxyObject
 90
      499
 91
      501
 93
      388
310
4150985CDA58D07406404333333333333E33F0000000000000F90107A41107004050150841D405064090741402480A0350
1001
ACAD
1000
AcDbSavedByObjectVersion
1070
     0
  0
ACAD_PROXY_OBJECT
  5
36
102
{ACAD_REACTORS
330
2A
102
}
330
2A
100
AcDbProxyObject
 90
      499
 91
      501
 93
      428
310
42109C9A59DA1D195B90C409028333333333333E33F0000000000000F9010790141107004050150841D405064090741402480A029950
1001
ACAD
1000
AcDbSavedByObjectVersion
1070
     0
  0
ACAD_PROXY_OBJECT
  5
3A
102
{ACAD_REACTORS
330
2A
102
}
330
2A
100
AcDbProxyObject
 90
      499
 91
      501
 93
      452
310
42D0DBDB1BDC90DA185B99D95104090240C333333333333E33F0000000000000F90108901411070040501508421405064090741402480A0350
1001
ACAD
1000
AcDbSavedByObjectVersion
1070
     0
  0
ACAD_PROXY_OBJECT
  5
34
102
{ACAD_REACTORS
330
2A
102
}
330
2A
100
AcDbProxyObject
 90
      499
 91
      501
 93
      500
310
4290DBDB98D95C1D1D585B10940D028333333333333E33F0000000000000F90107902409070040501000000000018199010841D405064090740C02480A0340
1001
ACAD
1000
AcDbSavedByObjectVersion
1070
     0
  0
ACAD_PROXY_OBJECT
  5
35
102
{ACAD_REACTORS
330
2A
102
}
330
2A
100
AcDbProxyObject
 90
      499
 91
      501
 93
      412
310
40D11A5B50B409028333333333333E33F0000000000000F9010790141107004050150841D405064090741402480A02677FFFFFD0
1001
ACAD
1000
AcDbSavedByObjectVersion
1070
     0
  0
ACAD_PROXY_OBJECT
  5
3D
102
{ACAD_REACTORS
330
2A
102
}
330
2A
100
AcDbProxyObject
 90
      499
 91
      501
 93
      452
310
43115919D950DBDB1BDC93D999916409028333333333333E33F0000000000000F9010790141107004050150841D405064090741402480A0350
1001
ACAD
1000
AcDbSavedByObjectVersion
1070
     0
  0
ACAD_PROXY_OBJECT
  5
39
102
{ACAD_REACTORS
330
2A
102
}
330
2A
100
AcDbProxyObject
 90
      499
 91
      501
 93
      444
310
42D19858D95C185D1D195C9B90F409028333333333333E33F0000000000000F9010790141107004050150841D405064090741402480A0350
1001
ACAD
1000
AcDbSavedByObjectVersion
1070
     0
  0
ACAD_PROXY_OBJECT
  5
2B
102
{ACAD_REACTORS
330
2A
102
}
330
2A
100
AcDbProxyObject
 90
      499
 91
      501
 93
      380
310
41119B185D240901404333333333333E33F0000000000000F9010740A907004050150841D405064090741402480A1B50
1001
ACAD
1000
AcDbSavedByObjectVersion
1070
     0
  0
ACAD_PROXY_OBJECT
  5
2C
102
{ACAD_REACTORS
330
2A
102
}
330
2A
100
AcDbProxyObject
 90
      499
 91
      501
 93
      468
310
43519B185D15DA5D1A115919D95CD0140901404333333333333E33F0000000000000F90107409019070040501600405405064090741402480A1B50
1001
ACAD
1000
AcDbSavedByObjectVersion
1070
     0
  0
ACAD_PROXY_OBJECT
  5
2D
102
{ACAD_REACTORS
330
2A
102
}
330
2A
100
AcDbProxyObject
 90
      499
 91
      501
 93
      404
310
41D1DBDD5C985D5910240902404333333333333E33F0000000000000F9010740A9070040501641D405064090741402480A1B50
1001
ACAD
1000
AcDbSavedByObjectVersion
1070
     0
  0
ACAD_PROXY_OBJECT
  5
2E
102
{ACAD_REACTORS
330
2A
102
}
330
2A
100
AcDbProxyObject
 90
      499
 91
      501
 93
      492
310
4411DBDD5C985D5915DA5D1A115919D95CD0340902404333333333333E33F0000000000000F90107409019070040501600405405064090741402480A1B50
1001
ACAD
1000
AcDbSavedByObjectVersion
1070
     0
  0
ACAD_PROXY_OBJECT
  5
31
102
{ACAD_REACTORS
330
2A
102
}
330
2A
100
AcDbProxyObject
 90
      499
 91
      501
 93
      476
310
41921A5919195B90640502408333333333333E33F0000000000000F901079024090700405020000000000001110200405405064090740C02480A0340
1001
ACAD
1000
AcDbSavedByObjectVersion
1070
     0
  0
ACAD_PROXY_OBJECT
  5
3B
102
{ACAD_REACTORS
330
2A
102
}
330
2A
100
AcDbProxyObject
 90
      499
 91
      501
 93
      428
310
42529A5D1D195C93D999914409028333333333333E33F0000000000000F9010790141107004050150A41D405064090741402480A0350
1001
ACAD
1000
AcDbSavedByObjectVersion
1070
     0
  0
ACAD_PROXY_OBJECT
  5
38
102
{ACAD_REACTORS
330
2A
102
}
330
2A
100
AcDbProxyObject
 90
      499
 91
      501
 93
      444
310
42D31A5B995C185D1D195C9B90E409028333333333333E33F0000000000000F9010790141107004050750841D405064090741402483A0350
1001
ACAD
1000
AcDbSavedByObjectVersion
1070
     0
  0
ACAD_PROXY_OBJECT
  5
3C
102
{ACAD_REACTORS
330
2A
102
}
330
2A
100
AcDbProxyObject
 90
      499
 91
      501
 93
      444
310
42D3DD995C9A185B99D3D999915409028333333333333E33F0000000000000F9010790141107004050150941D405064090741402480A0350
1001
ACAD
1000
AcDbSavedByObjectVersion
1070
     0
  0
ACAD_PROXY_OBJECT
  5
33
102
{ACAD_REACTORS
330
2A
102
}
330
2A
100
AcDbProxyObject
 90
      499
 91
      501
 93
      428
310
425499585B1A5CDD1A58D08409038333333333333E33F0000000000000F9010740A907004050150800405405064090740C02480A1B40
1001
ACAD
1000
AcDbSavedByObjectVersion
1070
     0
  0
ACAD_PROXY_OBJECT
  5
42
102
{ACAD_REACTORS
330
2A
102
}
330
2A
100
AcDbProxyObject
 90
      499
 91
      501
 93
      420
310
4194DA1859195911B40902404333333333333E33F0000000000000F9010740A41107004050150800405405064090840C02480A0B40
1001
ACAD
1000
AcDbSavedByObjectVersion
1070
     0
  0
ACAD_PROXY_OBJECT
  5
41
102
{ACAD_REACTORS
330
2A
102
}
330
2A
100
AcDbProxyObject
 90
      499
 91
      501
 93
      516
310
4454DA18591959081DDA5D1A08195919D95CD1A40902404333333333333E33F0000000000000F901074090142907004050250800405405064090740C02480A0B40
1001
ACAD
1000
AcDbSavedByObjectVersion
1070
     0
  0
ACAD_PROXY_OBJECT
  5
3E
102
{ACAD_REACTORS
330
2A
102
}
330
2A
100
AcDbProxyObject
 90
      499
 91
      501
 93
      532
310
4394DA1859195CC81BD98811DC985E5174090240C333333333333E33F0000000000000F901079024090741D01000000000000111010841D405064090740C02480A0340
1001
ACAD
1000
AcDbSavedByObjectVersion
1070
     0
  0
ACAD_PROXY_OBJECT
  5
3F
102
{ACAD_REACTORS
330
2A
102
}
330
2A
100
AcDbProxyObject
 90
      499
 91
      501
 93
      476
310
41D4DAD95D18DA1E51840502408333333333333E33F0000000000000F901079024090741D01000000000000111010B41D405064090741802480A0340
1001
ACAD
1000
AcDbSavedByObjectVersion
1070
     0
  0
ACAD_PROXY_OBJECT
  5
37
102
{ACAD_REACTORS
330
2A
102
}
330
2A
100
AcDbProxyObject
 90
      499
 91
      501
 93
      412
310
41D51A1A58DAD95B90D409028333333333333E33F0000000000000F9010790141107004050150C41D405064090741402480A0350
1001
ACAD
1000
AcDbSavedByObjectVersion
1070
     0
  0
ACAD_PROXY_OBJECT
  5
30
102
{ACAD_REACTORS
330
2A
102
}
330
2A
100
AcDbProxyObject
 90
      499
 91
      501
 93
      420
310
4255DA5C99599C985B595059028333333333333E33F0000000000000F90107901411070040501600405405064090740C02480A0340
1001
ACAD
1000
AcDbSavedByObjectVersion
1070
     0
  0
ACAD_PROXY_OBJECT
  5
40
102
{ACAD_REACTORS
330
2A
102
}
330
2A
100
AcDbProxyObject
 90
      499
 91
      501
 93
      404
310
41560B54985E51940902404000000000000E03F0000000000000F9010740501907004050150841D405064090740C02480A1B40
1001
ACAD
1000
AcDbSavedByObjectVersion
1070
     0
  0
XRECORD
  5
290
102
{ACAD_REACTORS
330
286
102
}
330
286
100
AcDbXrecord
340
0
  0
XRECORD
  5
28F
102
{ACAD_REACTORS
330
286
102
}
330
286
100
AcDbXrecord
 90
        0
  0
XRECORD
  5
2A6
102
{ACAD_REACTORS
330
286
102
}
330
286
100
AcDbXrecord
1000
DSTYLE
1002
{
1070
   171
 70
     2
1070
   143
 40
25.4
1070
   274
 70
     2
1070
    41
 40
0.18
1070
   141
 40
0.09
1070
   271
 70
     4
1070
    43
 40
0.38
1070
   278
 70
    46
1070
    44
 40
0.18
1070
    42
 40
0.0625
1070
   147
 40
0.09
1070
    77
 70
     0
1070
   272
 70
     4
1070
    73
 70
     1
1070
   172
 70
     0
1070
    74
 70
     1
1070
   283
 70
     1
1070
   340
340
11
1070
   140
 40
0.18
1070
   284
 70
     0
1070
    78
 70
     0
1002
}
  0
XRECORD
  5
291
102
{ACAD_REACTORS
330
286
102
}
330
286
100
AcDbXrecord
  1
{bc92d931-5023-c64c-8d10-9c3c79436517}
  0
XRECORD
  5
289
102
{ACAD_REACTORS
330
286
102
}
330
286
100
AcDbXrecord
  1

  0
XRECORD
  5
28E
102
{ACAD_REACTORS
330
286
102
}
330
286
100
AcDbXrecord
 90
        5
  0
XRECORD
  5
28B
102
{ACAD_REACTORS
330
286
102
}
330
286
100
AcDbXrecord
340
1A
  0
XRECORD
  5
28D
102
{ACAD_REACTORS
330
286
102
}
330
286
100
AcDbXrecord
 90
    10781
  0
XRECORD
  5
28C
102
{ACAD_REACTORS
330
286
102
}
330
286
100
AcDbXrecord
340
19
  0
XRECORD
  5
293
102
{ACAD_REACTORS
330
286
102
}
330
286
100
AcDbXrecord
 40
0.0
  0
XRECORD
  5
296
102
{ACAD_REACTORS
330
286
102
}
330
286
100
AcDbXrecord
340
0
  0
XRECORD
  5
29C
102
{ACAD_REACTORS
330
286
102
}
330
286
100
AcDbXrecord
 10
0.0
 20
0.0
 30
0.0
  0
XRECORD
  5
298
102
{ACAD_REACTORS
330
286
102
}
330
286
100
AcDbXrecord
 10
0.0
 20
0.0
 30
0.0
  0
XRECORD
  5
29B
102
{ACAD_REACTORS
330
286
102
}
330
286
100
AcDbXrecord
 10
0.0
 20
0.0
 30
0.0
  0
XRECORD
  5
299
102
{ACAD_REACTORS
330
286
102
}
330
286
100
AcDbXrecord
 10
0.0
 20
0.0
 30
0.0
  0
XRECORD
  5
29A
102
{ACAD_REACTORS
330
286
102
}
330
286
100
AcDbXrecord
 10
0.0
 20
0.0
 30
0.0
  0
XRECORD
  5
297
102
{ACAD_REACTORS
330
286
102
}
330
286
100
AcDbXrecord
 10
0.0
 20
0.0
 30
0.0
  0
XRECORD
  5
294
102
{ACAD_REACTORS
330
286
102
}
330
286
100
AcDbXrecord
340
0
  0
XRECORD
  5
295
102
{ACAD_REACTORS
330
286
102
}
330
286
100
AcDbXrecord
 70
     0
  0
XRECORD
  5
28A
102
{ACAD_REACTORS
330
286
102
}
330
286
100
AcDbXrecord
  1

  0
XRECORD
  5
287
102
{ACAD_REACTORS
330
286
102
}
330
286
100
AcDbXrecord
 90
        1
  0
XRECORD
  5
288
102
{ACAD_REACTORS
330
286
102
}
330
286
100
AcDbXrecord
 90
       70
  0
XRECORD
  5
29F
102
{ACAD_REACTORS
330
286
102
}
330
286
100
AcDbXrecord
340
0
  0
XRECORD
  5
2A5
102
{ACAD_REACTORS
330
286
102
}
330
286
100
AcDbXrecord
 10
0.0
 20
0.0
 30
0.0
  0
XRECORD
  5
2A1
102
{ACAD_REACTORS
330
286
102
}
330
286
100
AcDbXrecord
 10
0.0
 20
0.0
 30
0.0
  0
XRECORD
  5
2A4
102
{ACAD_REACTORS
330
286
102
}
330
286
100
AcDbXrecord
 10
0.0
 20
0.0
 30
0.0
  0
XRECORD
  5
2A2
102
{ACAD_REACTORS
330
286
102
}
330
286
100
AcDbXrecord
 10
0.0
 20
0.0
 30
0.0
  0
XRECORD
  5
2A3
102
{ACAD_REACTORS
330
286
102
}
330
286
100
AcDbXrecord
 10
0.0
 20
0.0
 30
0.0
  0
XRECORD
  5
2A0
102
{ACAD_REACTORS
330
286
102
}
330
286
100
AcDbXrecord
 10
0.0
 20
0.0
 30
0.0
  0
XRECORD
  5
29D
102
{ACAD_REACTORS
330
286
102
}
330
286
100
AcDbXrecord
340
0
  0
XRECORD
  5
29E
102
{ACAD_REACTORS
330
286
102
}
330
286
100
AcDbXrecord
 70
     0
  0
XRECORD
  5
292
102
{ACAD_REACTORS
330
286
102
}
330
286
100
AcDbXrecord
  1
{FAEB1C32-E019-11D5-929B-00C0DF256EC4}
  0
DICTIONARYVAR
  5
2B0
102
{ACAD_REACTORS
330
2A7
102
}
330
2A7
100
DictionaryVariables
280
     0
  1
1:1
  0
DICTIONARYVAR
  5
2A9
102
{ACAD_REACTORS
330
2A7
102
}
330
2A7
100
DictionaryVariables
280
     0
  1
Standard
  0
DICTIONARYVAR
  5
2A8
102
{ACAD_REACTORS
330
2A7
102
}
330
2A7
100
DictionaryVariables
280
     0
  1
Standard
  0
DICTIONARYVAR
  5
2AC
102
{ACAD_REACTORS
330
2A7
102
}
330
2A7
100
DictionaryVariables
280
     0
  1
2
  0
DICTIONARYVAR
  5
2AD
102
{ACAD_REACTORS
330
2A7
102
}
330
2A7
100
DictionaryVariables
280
     0
  1
1
  0
DICTIONARYVAR
  5
2B1
102
{ACAD_REACTORS
330
2A7
102
}
330
2A7
100
DictionaryVariables
280
     0
  1
1
  0
DICTIONARY
  5
2B4
330
45
100
AcDbDictionary
280
     1
  3
ACAD_XREC_ROUNDTRIP
360
2B5
  0
DICTIONARY
  5
2B2
330
44
100
AcDbDictionary
280
     1
  3
ACAD_XREC_ROUNDTRIP
360
2B3
  0
DICTIONARY
  5
2B6
330
46
100
AcDbDictionary
280
     1
  3
ACAD_XREC_ROUNDTRIP
360
2B7
  0
DICTIONARY
  5
2BA
330
22C
100
AcDbDictionary
280
     1
  3
ACAD_XREC_ROUNDTRIP
360
2BB
  0
DICTIONARY
  5
2B8
330
80
100
AcDbDictionary
280
     1
  3
ACAD_XREC_ROUNDTRIP
360
2B9
  0
XRECORD
  5
2B5
102
{ACAD_REACTORS
330
2B4
102
}
330
2B4
100
AcDbXrecord
102
MATERIAL
148
0.0
149
0.0
149
0.0
 93
        0
 94
      127
282
     0
 72
     1
 77
     1
171
     1
175
     1
179
     1
273
     0
  0
XRECORD
  5
2B3
102
{ACAD_REACTORS
330
2B2
102
}
330
2B2
100
AcDbXrecord
102
MATERIAL
148
0.0
149
0.0
149
0.0
 93
        0
 94
      127
282
     0
 72
     1
 77
     1
171
     1
175
     1
179
     1
273
     0
  0
XRECORD
  5
2B7
102
{ACAD_REACTORS
330
2B6
102
}
330
2B6
100
AcDbXrecord
102
MATERIAL
148
0.0
149
0.0
149
0.0
 93
        0
 94
      127
282
     0
 72
     1
 77
     1
171
     1
175
     1
179
     1
273
     0
  0
XRECORD
  5
2BB
102
{ACAD_REACTORS
330
2BA
102
}
330
2BA
100
AcDbXrecord
102
MATERIAL
148
0.0
149
0.0
149
0.0
 93
        0
 94
        8
282
     0
 72
     1
 77
     1
171
     1
175
     1
179
     1
273
     0
  0
XRECORD
  5
2B9
102
{ACAD_REACTORS
330
2B8
102
}
330
2B8
100
AcDbXrecord
102
MATERIAL
148
0.0
149
0.0
149
0.0
 93
        0
 94
        0
282
     0
 72
     1
 77
     1
171
     1
175
     1
179
     1
273
     0
  0
ENDSEC
  0
EOF
